a b c d e f g h i j k l m n o p q r s t u v w x y z 0-9

East Jesus Nowhere

Green Day

E
G
D
A
B
C
			
TODA LA CANCION SE OYE MEJOR SI SE SACA CON PURAS QUINTAS. :]


INTRO: E-G-E-D-E [x 4 Veces] y al final D-A-B


				D-A-B
Raise your hands now to testify
				D-A-B	
Your confession will be crucified
				D-A-B
You're a sacrificial suicide

Like a dog that's been
	D-A       E-G-E-D-E 
sodomized
			E-G-E-D-E 
Stand up! - All the white boys
			E-G-E-D-E 
Sit down! - All the black girls
			E-G-E-D-E 
You're the soldiers 
   	 D-A-B
of the new world
				D-A-B
Put your faith in a miracle
				D-A-B
And it's non - denominational
				D-A-B
Join the choir we will be singing
		    D 
In the church of wishful
thinking

CORO

   E		D
A fire burns today
      A           C   B
Of blasphemy and genocide
   E		D
The sirens of decay
      A               C      B  
Will infiltrate the faith fanatics


La segunda guitarra puntea

e-------4--7---10--8----------------
B--3/5----------------10--9---------
G----------------------------------- [X2]
D-----------------------------------
A-----------------------------------
E-----------------------------------

Mientras la primera guitarra hace el intro

E-G-E-D-E [x 4 Veces] y al final D-A-B

AHI VA EL SOLO DE BAJO

Solo juega con las notas en E

Oh bless me lord for I have
sinned
It's been a lifetime since I last
confessed
I threw my crutches in "The river
of a shadow of doubt"
And I'll be dressed in my Sunday
best

D-A-B
			D-A-B
Say a prayer for the family
			D-A-B
Drop a coin for humanity
				D-A-B
Ain't this uniform so flattering?
	B	    D  	
I never asked you a God damned thing


CORO

   E		D
A fire burns today
      A           C   B
Of blasphemy and genocide
   E		D
The sirens of decay
      A               C      B  
Will infiltrate the faith fanatics


La segunda guitarra puntea OTRA VEZ

e-------4--7---10--8----------------
B--3/5----------------10--9---------
G----------------------------------- [X2]
D-----------------------------------
A-----------------------------------
E-----------------------------------

Mientras la primera guitarra hace el intro

E-G-E-D-E [x 4 Veces]


E [x 13 Veces]
Don't test me

E [x 13 Veces]
Second guess me

E [x 13 Veces]
Protest me 

E x3 Veces         D-A-B
You will disappear
			           D-A-B
I want to know who's allowed to breed
				   D-A-B
All the dogs who never learned to read
		   D-A-B
Missionary politicians
B		    D2
And the cops of a new religion

Aca puntea la 1º GUITARRA

e------------------5-5--7/8---7------12---12--14-----------12--12--14/15---14--------
B--5-5--7/8---8-----5-------8---7------12-------15---15------12---------15----15--17v
G---4--------7-7-----------------------------------14--14----------------------------
D------------------------------------------------------------------------------------
A------------------------------------------------------------------------------------
E------------------------------------------------------------------------------------

La segunda guitarra puntea OTRA VEZ
	
e-------4--7---10--8----------------
B--3/5----------------10--9---------
G----------------------------------- [X4]
D-----------------------------------
A-----------------------------------
E-----------------------------------

   E		D
A fire burns today
      A           C   B
Of blasphemy and genocide
   E		D
The sirens of decay
      A               C      B  
Will infiltrate the inside

YEA!!!!!
E-G-E-D-E [x 4 Veces] Y puntea la 2º guitarra 2 Veces pero de fondo para el final

el final es diferente

D-A-E         E-E-E-E

Fuente: Lacuerda