a b c d e f g h i j k l m n o p q r s t u v w x y z 0-9

Dry Ice

Green Day

			
Intro
e|---------------------------------------------------------------------------|
B|--------1-2-1-4------------------------------------------------------------|
G|------1--------------------------------------------------------------------|
D|-6--1----------------------------------------------------------------------|
A|-6-------------------------------------------------------------------------|
E|-4-------------------------------------------------------------------------|
Verse
e|---------------------------------------------------------------------------|
B|---------------------------------------------------------------------------|
G|---------6-6-6-6-7-7-7-7------------------6-6-6-6-7-7-7-7------------------|
D|-7-7-7-7-6-6-6-6-7-7-7-7-7-7-7-7--7-7-7-7-6-6-6-6-7-7-7-7-2-2-2-2----------|
A|-7-7-7-7-4-4-4-4-5-5-5-5-7-7-7-7--7-7-7-7-4-4-4-4-5-5-5-5-2-2-2-2----------|
E|-5-5-5-5-----------------5-5-5-5--5-5-5-5-----------------0-0-0-0----------|
Chorus
e|---------------------------------------------------------------------------|
B|---------------------------------------------------------------------------|
G|-7-----------7-7-7-9-9-9---------------------------------------------------|
D|-7--7----x3--7-7-7-9-9-9---------------------------------------------------|
A|-5--7--------5-5-5-7-7-7---------------------------------------------------|
E|----5----------------------------------------------------------------------|
Bridge
e|---------------------------------------------------------------------------|
B|---------------------------------------------------------------------------|
G|-------------------7-7-7-7-------------------------------------------------|
D|-7-7-7-7-7-3-3-3-3-7-7-7-7-------------------------------------------------|
A|-7-7-7-7-7-3-3-3-3-5-5-5-5-------------------------------------------------|
E|-5-5-5-5-5-1-1-1-1---------------------------------------------------------|

Fuente: tusacordes.com