a b c d e f g h i j k l m n o p q r s t u v w x y z 0-9

Disappearing Boy

Green Day

			
Intro/Verse
e|---------------------------------------------------------------------------|
B|---------------------------------------------------------------------------|
G|-------------------------7-7-7-7-------------------------------------------|
D|-7-7-7-7-4-4-4-4-5-5-5-5-7-7-7-7-------------------------------------------|
A|-7-7-7-7-4-4-4-4-5-5-5-5-5-5-5-5-------------------------------------------|
E|-5-5-5-5-2-2-2-2-3-3-3-3---------------------------------------------------|
Chorus
e|---------------------------------------------------------------------------|
B|---------------------------------------------------------------------------|
G|-4-4-4-4-4-5-5-5-5---------------------------------------------------------|
D|-4-4-4-4-4-5-5-5-5--5-5-5-5-5-5-5------------------------------------------|
A|-2-2-2-2-2-3-3-3-3--5-5-5-5-5-5-5------------------------------------------|
E|--------------------3-3-3-3-3-3-3------------------------------------------|
Bridge
e|---------------------------------------------------------------------------|
B|---------------------------------------------------------------------------|
G|-----7--------5------------------------------------------------------------|
D|---7---7----5---5------5-----------5----------x4---------------------------|
A|-5--------3----------5---5-------5---5-------------------------------------|
E|-------------------3-------3--3---------3----------------------------------|

Fuente: tusacordes.com