a b c d e f g h i j k l m n o p q r s t u v w x y z 0-9

Carpe Diem

Green Day

			
e|---------------------------------------------------------------------------|
B|---------------------------------------------------------------------------|
G|--7-7-7-7-7-7------7-----7-7-7-7-7-7------7--------------------------------|
D|--7-7-7-7-7-7--5-7-7-----7-7-7-7-7-7--7-5-7--------------------------------|
A|--5-5-5-5-5-5--5-7-5-----5-5-5-5-5-5--7-5-5--------------------------------|
E|---------------3-5--------------------5-3----------------------------------|

VERSO

    ******* Palm Mute
e|---------------------------------------------------------------------------|
B|---------------------------------------------------------------------------|
G|--7777777---7----------------------------------------7---------------------|
D|--7777777---7?Tocar la cantidad de veces necesarias--7-77777---------------|
A|--5555555-0-5----------------------------------------5-77777---------------|
E|-------------------------------------------------------55555---------------|

PARTE 2 DEL CORO

"Making A Living, Making A Killing..."

e|---------------------------------------------------------------------------|
B|---------------------------------------------------------------------------|
G|--777777-----------------7-------------------------------------------------|
D|--777777-555555---X3-----7?todas las veces que creas necesarias------------|
A|--555555-555555----------5-------------------------------------------------|
E|---------333333------------------------------------------------------------|

PUENTE BRIDGEFuente: Tus acordes