a b c d e f g h i j k l m n o p q r s t u v w x y z 0-9

Burnout

Green Day

			
 Dookie [1994]

Notes:  Simple song, the guitar 2 after-chorus part is barely
heard.

h = hammer-on
p = pull-off
b = bend
/ = slide up
\ = slide down
5 = power chord

Verse [x2]
   G5   C5   G5   C5 F5 G5   F5   D5
e|---------------------------------------------------------------|
B|---------------------------------------------------------------|
G|------5---------5---------------7------------------------------|
D|-5----5----5----5--3--5----3----7------------------------------|
A|-5----3----5----3--3--5----3----5------------------------------|
E|-3---------3-------1--3----1-----------------------------------|

Chorus                              [guitar 2 before bridge & end]
   C5   G5   C5 F5 G5   C5   F5   D5      D5   F#5  G5   A5
e|---------------------------------------------------------------|
B|---------------------------------------------------------------|
G|-5---------5----------5---------7-------7----11---12---14------|
D|-5----5----5--3--5----5----3----7-------7----11---12---14------|
A|-3----5----3--3--5----3----3----5-------5----9----10---12------|
E|------3-------1--3---------1-----------------------------------|

Bridge [x4]
   G5    F5 G5
e|---------------------------------------------------------------|
B|---------------------------------------------------------------|
G|--------------[drum fill]--------------------------------------|
D|-5-5-5--3-5----------------------------------------------------|
A|-5-5-5--3-5----------------------------------------------------|
E|-3-3-3--1-3----------------------------------------------------|


Order

Verse 1
Chorus
Verse 2
Chorus x2
Bridge
Chorus x2
End on bridge riff x1


Lyrics

I declare I don't care no more
I'm burning up and out and growing bored
In my smoked out boring room			[Verse 1]
My hair is shagging in my eyes
Dragging my feet to hit the street tonight
To drive along these shit town lights

I'm not growing up
I'm just burning out				[Chorus]
And I've stepped in line
To walk amongst the dead

Apathy has rained on me
And now I'm feeling like a soggy dream
So close to drowning but I don't mind
I've lived inside this mental cave		[Verse 2]
Throw my emotions in the grave
Hell, who needs them anyway?

[Chorus x2]
[Bridge]
[Chorus x2]
 

Fuente: Lacuerda