a b c d e f g h i j k l m n o p q r s t u v w x y z 0-9

Bullet In A Bible (disco)

Green Day

			
Green Day Bullet in a Bible
Whole album tab
Tabbed by Liam
Email: carlos_gutierrez4.0@hotmail.com
Tuning: individual tuning is specified on each tab

This is the whole actual bullet in a bible album tabbed fully and only by me, it has
all the extras and the added bits the guys added to each song and also shout. Please have fun,
and comment? It would be appreciated, thanks.

Additional added while tabbing first track I am tabbing the songs as heard, as this is easier
to read and there is no confusing order at the bottom. Also the x3 or x5 whatever means you
repeat that bar or bars where applicable that amount of times, obviously.

2nd Additional added while tabbing minority I am under the knowledge that the Audio CD
Bullet in a Bible, differs slightly from the DVD. As the CD cuts bits out, and I am tabbing
the CD NOT the DVD, so if it appears that there is bits missing out of the tabs, there is
not, its cos I am tabbing the Audio CD, if you should require the extra DVD bits, just email me and
request and I?ll have a go at tabbing them for you.

1.	American Idiot
2.	Jesus of Suburbia
?	Jesus of Suburbia
?	City of the Damned
?	I Don?t Care
?	Dearly Beloved
?	Tales of another Broken Home
3.	Holiday
4.	Are we Waiting
5.	St. Jimmy
6.	Longview
7.	Hitchin? a Ride
8.	Brain stew
9.	Basket Case
10.	King for a day/Shout
11.	Wake me up when September Ends
12.	Minority
13.	Boulevard of Broken Dreams
14.	Good Riddance Time of your Life


-----------------------------------------------------------------------------------------
Green Day
American Idiot

Guitar 1 ?EADGBe ?Billie Joe Armstrong
Guitar 2 ?EADGBe ?Jason White

Intro
 |Guitar 1 clean                               |Distortion)
e|-----------------------------------------------|---------------------------4-|
B|-----------------------------------------------|---------------------------4-|
G|-------------------------------6-6--------6----|----------6-6--------6-----4-|
D|-xxxxxxxx-xxxxxxxx-xxxx--6-6---6-6---4-4--6--6-|-4--6-6---6-6---4-4--6--6--4-|
A|-xxxxxxxx-xxxxxxxx-xxxx--6-6---4-4---4-4--4--6-|-4--6-6---4-4---4-4--4--6----|
E|-xxxxxxxx-xxxxxxxx-xxxx--4-4-0-----0-2-2-----4-|-2--4-4--0----0-2-2-----4----|
 |Guitar 2
e|---------------------------------------------------------------------------4-|
B|---------------------------------------------------------------------------4-|
G|----------------------------------------------------------6-6--------6-----4-|
D|-------------------------------------------------4--6-6---6-6---4-4--6--6--4-|
A|-------------------------------------------------4--6-6---4-4---4-4--4--6----|
E|-------------------------------------------------2--4-4--0----0-2-2-----4----|

Pre Verse
 |Both guitars
e|-----------------------------------|---------------------------------4-|
B|-----------------------------------|---------------------------------4-|
G|-----------6--6----------6---------|------------6--6----------6------4-|
D|--6--6-----6--6-----4-4--6--6--4---|---6--6-----6--6-----4-4--6--6---4-|
A|--6--6-----4--4-----4-4--4--6--4---|---6--6-----4--4-----4-4--4--6-----|
E|--4--4--0--------0--2-2-----4--2---|---4--4--0--------0--2-2-----4-----|

Verse
 |Both guitars
(Pause for lyrics)
e|-4-----------------------------------------------4--------------------------4--|
B|-4-----------------------------------------------4--------------------------4--|
G|-4-------6-6---------6---------------------------4--------6-6---------6-----4--|
D|-4-6-6---6-6----4-4--6--6--4-(pause for lyrics)--4--6-6---6-6----4-4--6--6--4--|
A|---6-6---4-4----4-4--4--6--4------------------------6-6---4-4----4-4--4--6-----|
E|---4-4-0-----0--2-2-----4--2------------------------4-4-0-----0--2-2-----4-----|

(Pause for lyrics)

e|-4-----------------------------------------------4--------------------------4--|
B|-4-----------------------------------------------4--------------------------4--|
G|-4-------6-6---------6---------------------------4--------6-6---------6-----4--|
D|-4-6-6---6-6----4-4--6--6--4-(pause for lyrics)--4--6-6---6-6----4-4--6--6--4--|
A|---6-6---4-4----4-4--4--6--4------------------------6-6---4-4----4-4--4--6-----|
E|---4-4-0-----0--2-2-----4--2------------------------4-4-0-----0--2-2-----4-----|

Chorus
 |Both guitars
e|-----------------------------------------------|
B|-----------------------------------------------|
G|-6666666666-------------8888888888-------------|
D|-6666666666--6666666666-8888888888--6666666666-|
A|-4444444444--6666666666-6666666666--6666666666-|
E|-------------4444444444-------------4444444444-|

e|-----------------------------------------------|
B|---------------------------------------------4-|
G|-6666666666-------------8888888888---(drum---4-|
D|-6666666666--6666666666-8888888888----fill)--4-|
A|-4444444444--6666666666-6666666666-----------4-|
E|-------------4444444444------------------------|

Pre Verse 2
 |Both guitars
e|-----------------------------------|---------------------------------4-|
B|-----------------------------------|---------------------------------4-|
G|-----------6--6----------6---------|------------6--6----------6------4-|
D|--6--6-----6--6-----4-4--6--6--4---|---6--6-----6--6-----4-4--6--6---4-|
A|--6--6-----4--4-----4-4--4--6--4---|---6--6-----4--4-----4-4--4--6-----|
E|--4--4--0--------0--2-2-----4--2---|---4--4--0--------0--2-2-----4-----|

Verse 2
 |Both guitars
(Pause for lyrics)
e|-4-----------------------------------------------4--------------------------4--|
B|-4-----------------------------------------------4--------------------------4--|
G|-4-------6-6---------6---------------------------4--------6-6---------6-----4--|
D|-4-6-6---6-6----4-4--6--6--4-(pause for lyrics)--4--6-6---6-6----4-4--6--6--4--|
A|---6-6---4-4----4-4--4--6--4------------------------6-6---4-4----4-4--4--6-----|
E|---4-4-0-----0--2-2-----4--2------------------------4-4-0-----0--2-2-----4-----|

(Pause for lyrics)

e|-4-----------------------------------------------4--------------------------4--|
B|-4-----------------------------------------------4--------------------------4--|
G|-4-------6-6---------6---------------------------4--------6-6---------6-----4--|
D|-4-6-6---6-6----4-4--6--6--4-(pause for lyrics)--4--6-6---6-6----4-4--6--6--4--|
A|---6-6---4-4----4-4--4--6--4------------------------6-6---4-4----4-4--4--6-----|
E|---4-4-0-----0--2-2-----4--2------------------------4-4-0-----0--2-2-----4-----|

Chorus 2
 |Both guitars
e|-----------------------------------------------|
B|-----------------------------------------------|
G|-6666666666-------------8888888888-------------|
D|-6666666666--6666666666-8888888888--6666666666-|
A|-4444444444--6666666666-6666666666--6666666666-|
E|-------------4444444444-------------4444444444-|

e|-----------------------------------------------|
B|---------------------------------------------4-|
G|-6666666666-------------8888888888---(drum---4-|
D|-6666666666--6666666666-8888888888----fill)--4-|
A|-4444444444--6666666666-6666666666-----------4-|
E|-------------4444444444------------------------|

Pre solo
 |Both guitars
e|-----------------------------------|---------------------------------4-|
B|-----------------------------------|---------------------------------4-|
G|-----------6--6----------6---------|------------6--6----------6------4-|
D|--6--6-----6--6-----4-4--6--6--4---|---6--6-----6--6-----4-4--6--6---4-| x2
A|--6--6-----4--4-----4-4--4--6--4---|---6--6-----4--4-----4-4--4--6-----|
E|--4--4--0--------0--2-2-----4--2---|---4--4--0--------0--2-2-----4-----|

Solo
 |Guitar 1
e|----------------------------------------------------------|
B|----------------------------------------------------------|
G|--6-6-6-6-6-6-6-6-6-6-6-6-6-------------------------------|
D|--6-6-6-6-6-6-6-6-6-6-6-6-6---6-6-6-6-6-6-6-6-6-6-6-6-6-6-|
A|--4-4-4-4-4-4-4-4-4-4-4-4-4---6-6-6-6-6-6-6-6-6-6-6-6-6-6-|
E|------------------------------4-4-4-4-4-4-4-4-4-4-4-4-4-4-|
 |Guitar 2
e|----------------------------------------------------------|
B|----------------------------------------------------------|
G|-10101010101010101010--8--6--6/8-8-8-8-8-8-8/10--8--6--5--|
D|--x-x-x-x-x-x-x-x-x-x--x--x--x-x-x-x-x-x-x-x--x--x--x--x--|
A|--8-8-8-8-8-8-8-8-8-8--6--4--4/6-6-6-6-6-6-6/-8--6--4--3--|
E|----------------------------------------------------------|

 |Guitar 1
e|------------------------------------------------------------|
B|------------------------------------------------------------|
G|--8-8-8-8-8-8-8-8-8-8-8-8-8-8-------------------------------|
D|--8-8-8-8-8-8-8-8-8-8-8-8-8-8----6-6-6-6-6-6-6-6-6-6-6-6-6--|
A|--6-6-6-6-6-6-6-6-6-6-6-6-6-6----6-6-6-6-6-6-6-6-6-6-6-6-6--|
E|---------------------------------4-4-4-4-4-4-4-4-4-4-4-4-4--|
 |Guitar 2
e|----------------------------------------------8-------------|
B|------------------------------------9----11----------9---11-|
G|-3--3333--5--6--5--3-3-3-3-/8----88---88---88---8888---8----|
D|------------------------------------------------------------|
A|------------------------------------------------------------|
E|------------------------------------------------------------|

|Guitar 1
e|---------------------------------------------------------------------------------|
B|---------------------------------------------------------------------------------|
G|--6-6-6-6-6-6-6-6-6-6-6-6-6--------------------------------8-8-8-8-8-8-8-8-8-8-8-|
D|--6-6-6-6-6-6-6-6-6-6-6-6-6---6-6-6-6-6-6-6-6-6-6-6-6-6-6--8-8-8-8-8-8-8-8-8-8-8-|
A|--4-4-4-4-4-4-4-4-4-4-4-4-4---6-6-6-6-6-6-6-6-6-6-6-6-6-6--6-6-6-6-6-6-6-6-6-6-6-|
E|------------------------------4-4-4-4-4-4-4-4-4-4-4-4-4-4------------------------|
 |Guitar 2
e|---------------------------------------------------------------------------------|
B|------------------------------------------------------------------------------9b-|
G|-10101010101010101010-8--6--6/8-8-8-8-8-8-8/10--8--6--5---3-3333--5-6-5-3-5/8----|
D|--x-x-x-x-x-x-x-x-x-x-x--x--x-x-x-x-x-x-x-x--x--x--x--x--------------------------|
A|--8-8-8-8-8-8-8-8-8-8-6--4--4/6-6-6-6-6-6-6/-8--6--4--3--------------------------|
E|---------------------------------------------------------------------------------|

Interlude
 |Guitar 1
e|---------------------------|--------------------------|--------------------------|
B|---------------------------|--------------------------|--------------------------|
G|-13----13----13----13----13|-13----13----13----13---13|-13----13----13----13---13|
D|----13----13----13----13---|----13----13----13---13---|----13----13----13---13---|
A|---------------------------|--------------------------|--------------------------|
E|---------------------------|--------------------------|--------------------------|
 |Guitar 2
e|---------------------------|--------------------------|--------------------------|
B|---------------------------|--------------------------|--------------------------|
G|--------6-6----------6-----|--------6-6----------6----|--------6-6----------6----|
D|-6-6----6-6-----4-4--6--6--|-6-6----6-6-----4-4--6--6-|-6-6----6-6-----4-4--6--6-|
A|-6-6----4-4-----4-4--4--6--|-6-6----4-4-----4-4--4--6-|-6-6----4-4-----4-4--4--6-|
E|-4-4--0------0--2-2-----4--|-4-4--0------0--2-2-----4-|-4-4--0------0--2-2-----4-|

 |Guitar 1
e|---------------------------------------------------------------------------------|
B|--------------------------------------------|guitar one is now-------------------|
G|-13----13----13----13----13~~-----------------Tacet and us for-------------------|
D|----13----13----13----13-------------------------a while|------------------------|
A|---------------------------------------------------------------------------------|
E|---------------------------------------------------------------------------------|
 |Guitar 2
e|---------------------------|--------------------------|--------------------------|
B|---------------------------|--------------------------|--------------------------|
G|--------6-6----------6-----|--------6-6----------6----|--------6-6----------6----|
D|-6-6----6-6-----4-4--6--6--|-6-6----6-6-----4-4--6--6-|-6-6----6-6-----4-4--6--6-|
A|-6-6----4-4-----4-4--4--6--|-6-6----4-4-----4-4--4--6-|-6-6----4-4-----4-4--4--6-|
E|-4-4--0------0--2-2-----4--|-4-4--0------0--2-2-----4-|-4-4--0------0--2-2-----4-|

 |Guitar 2 now only (this is played under Billie when he talks to the crowd)
e|---------------------------|--------------------------|--------------------------|
B|---------------------------|--------------------------|--------------------------|
G|--------6-6----------6-----|--------6-6----------6----|--------6-6----------6----|
D|-6-6----6-6-----4-4--6--6--|-6-6----6-6-----4-4--6--6-|-6-6----6-6-----4-4--6--6-| x9
A|-6-6----4-4-----4-4--4--6--|-6-6----4-4-----4-4--4--6-|-6-6----4-4-----4-4--4--6-|
E|-4-4--0------0--2-2-----4--|-4-4--0------0--2-2-----4-|-4-4--0------0--2-2-----4-|

Then play:

Guitar 2
E|--------------------------|
B|--------------------------|
G|-?It?s calling out to-----|
D|-----idiot America?-------|
A|--------------------------|
E|---------------------9\---|

Chorus 3
 |Both guitars
e|-----------------------------------------------|
B|-----------------------------------------------|
G|-6666666666-------------8888888888-------------|
D|-6666666666--6666666666-8888888888--6666666666-|
A|-4444444444--6666666666-6666666666--6666666666-|
E|-------------4444444444-------------4444444444-|

e|-----------------------------------|
B|-----------------------------------|
G|-6666666666-------------8888888888-|
D|-6666666666--6666666666-8888888888-|
A|-4444444444--6666666666-6666666666-|
E|-------------4444444444------------|

Outro
 |Guitar 1 clean               |Distortion)
e|-----------------------------|-----------------------------|
B|-----------------------------|-----------------------------|
G|---------6-6----------6------|--------6-6----------6-------|
D|--6-6----6-6-----4-4--6--6---|-6-6----6-6-----4-4--6--6--4-|
A|--6-6----4-4-----4-4--4--6---|-6-6----4-4-----4-4--4--6--4-|
E|--4-4--0------0--2-2-----4---|-4-4--0------0--2-2-----4--2-|
 |Guitar 2
e|---------------------------4-|-----------------------------|
B|---------------------------4-|-----------------------------|
G|---------------------------4-|--------6-6----------6-------|
D|---------------------------4-|-6-6----6-6-----4-4--6--6--4-|
A|-----------------------------|-6-6----4-4-----4-4--4--6--4-|
E|-----------------------------|-4-4--0------0--2-2-----4--2-|

 |Guitar 1
e|-----------------------------|-----------------------------|
B|-----------------------------|-----------------------------|
G|--------6-6----------6-------|--------6-6----------6-------|
D|-6-6----6-6-----4-4--6--6--4-|-6-6----6-6-----4-4--6--6--4-|
A|-6-6----4-4-----4-4--4--6--4-|-6-6----4-4-----4-4--4--6--4-|
E|-4-4--0------0--2-2-----4--2-|-4-4--0------0--2-2-----4--2-|
 |Guitar 2
e|-----------------------------|-----------------------------|
B|-----------------------------|-----------------------------|
G|--------6-6----------6-------|--------6-6----------6-------|
D|-6-6----6-6-----4-4--6--6--4-|-6-6----6-6-----4-4--6--6--4-|
A|-6-6----4-4-----4-4--4--6--4-|-6-6----4-4-----4-4--4--6--4-|
E|-4-4--0------0--2-2-----4--2-|-4-4--0------0--2-2-----4--2-|

 |Guitar 1
e|---------------------------------|
B|---------------------------------|
G|---------------------------6-6---|
D|------------------------4--6-6-6-|
A|------------------------4--4-4-6-|
E|------------------------2------4-|
 |Guitar 2
e|---------------------------------|
B|---------------------------------|
G|----------6-6--------------6-6---|
D|--6-6-----6-6-----4-4---4--6-6-6-|
A|--6-6-----4-4-----4-4---4--4-4-6-|
E|--4-4--0-------0--2-2---2------4-|


Lyrics

Verse 1
Don't wanna? be an American idiot
Don't want a nation under the new media
Hey, can you hear the sound of hysteria?
The subliminal mind-fuck America, alright!

Chorus
Welcome to a new kind of tension
All across the alien nation
Everything isn't meant to be OK
Television dreams of tomorrow
We're not the ones who're meant to follow
For that's enough to argue, England!!

Verse 2
Well, maybe I'm the faggot, America
I'm not a part of a redneck agenda, alright!
Now everybody do the propaganda
And sing along in the age of paranoia, alright!

Chorus
Welcome to a new kind of tension
All across the alien nation
Everything isn't meant to be OK
Television dreams of tomorrow
We're not the ones who're meant to follow
For that's enough to argue, C?mon!

Interlude
Don't wanna? be an American idiot
One nation controlled by the media
Information - age of hysteria?
It?s calling out to idiot America

Chorus
Welcome to a new kind of tension
All across the alien nation
Everything isn't meant to be OK
Television dreams of tomorrow
We're not the ones who're meant to follow
Well that's enough to argue, C?mon!

-----------------------------------------------------------------------------------------
Green Day
Jesus of Suburbia

Guitar 1 ?EADGBe ?Billie Joe Armstrong
Guitar 2 ?EADGBe ?Jason White

---------------------------------------------------
I.   Jesus of Suburbia


Verse
 |Both guitars
e|----------------------------------------------------------|
B|----------------------------------------------------------|
G|-6-6-6-6--------------------------------------------------|
D|-6-6-6-6--8-8-8-8--8\-44444444-44444444-66666666-66666666-|
A|-4-4-4-4--8-8-8-8--8\-44444444-44444444-66666666-66666666-|
E|----------6-6-6-6--6\-22222222-22222222-44444444-44444444-|

e|----------------------------------------------------------|
B|----------------------------------------------------------|
G|-6-6-6-6--------------------------------------------------|
D|-6-6-6-6--8-8-8-8--8\-44444444-44444444-66666666-66666666-|
A|-4-4-4-4--8-8-8-8--8\-44444444-44444444-66666666-66666666-|
E|----------6-6-6-6--6\-22222222-22222222-44444444-44444444-|

Chorus
 |Both guitars
e|------------------------|
B|------------------------|
G|------------------------|
D|-4-4-4-4-x--6-6-6-6-6-6-| x3
A|-4-4-4-4-x--6-6-6-6-6-6-|
E|-2-2-2-2-x--4-4-4-4-4-4-|

Post Chorus
 |Both guitars
e|---------------------------|
B|---------------------------|
G|-6-6-x---------------------|
D|-6-6-x--6-6--x-4-4-4-4-4-4-| x2
A|-4-4-x--6-6--x-4-4-4-4-4-4-|
E|--------4-4--x-2-2-2-2-2-2-|

Verse 2
 |Both guitars
e|----------------------------------------------------------|
B|----------------------------------------------------------|
G|-6-6-6-6--------------------------------------------------|
D|-6-6-6-6--8-8-8-8--8\-44444444-44444444-66666666-66666666-|
A|-4-4-4-4--8-8-8-8--8\-44444444-44444444-66666666-66666666-|
E|----------6-6-6-6--6\-22222222-22222222-44444444-44444444-|

e|----------------------------------------------------------|
B|----------------------------------------------------------|
G|-6-6-6-6--------------------------------------------------|
D|-6-6-6-6--8-8-8-8--8\-44444444-44444444-66666666-66666666-|
A|-4-4-4-4--8-8-8-8--8\-44444444-44444444-66666666-66666666-|
E|----------6-6-6-6--6\-22222222-22222222-44444444-44444444-|

Chorus 2
 |Both guitars
e|------------------------|
B|------------------------|
G|------------------------|
D|-4-4-4-4-x--6-6-6-6-6-6-| x3
A|-4-4-4-4-x--6-6-6-6-6-6-|
E|-2-2-2-2-x--4-4-4-4-4-4-|

Post Chorus 2
 |Both guitars
e|---------------------------|
B|---------------------------|
G|-6-6-x---------------------|
D|-6-6-x--6-6--x-4-4-4-4-4-4-| x2
A|-4-4-x--6-6--x-4-4-4-4-4-4-|
E|--------4-4--x-2-2-2-2-2-2-|

Outro
 |Both guitars
e|----------------------------------------------------------|
B|----------------------------------------------------------|
G|-6-6-6-6--------------------------------------------------|
D|-6-6-6-6--8-8-8-8--8\-44444444-44444444-66666666-66666666-|
A|-4-4-4-4--8-8-8-8--8\-44444444-44444444-66666666-66666666-|
E|----------6-6-6-6--6\-22222222-22222222-44444444-44444444-|

e|----------------------------------------------|
B|----------------------------------------------|
G|-6-6-6-6-----------3-3-3----------------------|
D|-6-6-6-6--3-3-3-3--3-3-3--x-6-6-6--x--4~~-/6~~|
A|-4-4-4-4--3-3-3-3--1-1-1--x-6-6-6--x--4~~-/6~~|
E|----------1-1-1-1---------x-4-4-4--x--2~~-/4~~|

Lyrics

Verse 1
I'm the son of rage and love
The Jesus of Suburbia
The Bible of "none of the above"
On a steady diet of...

Soda pop and Ritalin
No one ever died for my sins in hell
As far as I can tell
At least the ones I've gotten away with

Chorus
And there's nothing wrong with me
This is how I'm supposed to be
In a land of make believe
That don't believe in me

Verse 2
Get my television fix
Sitting on my crucifix
The living room in my private womb
While the moms and brads are away

To fall in love and fall in debt
To alcohol and cigarettes
And Mary Jane to keep me insane
And doing someone else's cocaine

Chorus
And there's nothing wrong with me
This is how I'm supposed to be
In a land of make, everybody!...
That don't believe in me


---------------------------------------------------
II.     City of the damned


Initially just piano but Billie kicks in with:

Verse
 |Guitar 1 only
e|---------------------------------------|------------------------------|
B|---------------------------------------|------------------------------|
G|---------------------------------------|------------------------------|
D|---------------------------------------|------------------------------|
A|------4-4-4-4-4-4-4-4--6-6-6-6-6-6-6-6-|-4~~--4h6-4-3--1~~--1h3-1---x-|
E|-9\---2-2-2-2-2-2-2-2--4-4-4-4-4-4-4-4-|--------------------------4-x-|

Pre Chorus
 |Both guitars
e|----------------------------------|
B|----------------------------------|
G|----------------------------------|
D|----------------------------------|
A|-4-4-4-4-4-4-4-4--6-6-6-6-6-6-6-6-|
E|-2-2-2-2-2-2-2-2--4-4-4-4-4-4-4-4-|

Chorus
 |Both guitars
e|-------------------------------------------|-----------------------------|
B|-----------------------66666---------------|-----------------------------|
G|-----------------------66666---------------|-----------------------------|
D|-----------------------66666---------------|-----------------------------|
A|-88888------66666------44444--4/--44444----|-8888-x--6666-x--4444444-----|
E|-66666--6/--44444--4/-------------22222-2/-|-6666-x--4444-x--2222222--2/-|

e|-------------------------------------------|-------------------------|
B|-----------------------66666---------------|-------------------------|
G|-----------------------66666---------------|-------------------------|
D|-----------------------66666---------------|-------------------------|
A|-88888------66666------44444--4/--44444----|-8888-x--6666-x--4444444-|
E|-66666--6/--44444--4/-------------22222-2/-|-6666-x--4444-x--2222222-|

Verse 2
 |Guitar 1 only
e|---------------------------------------|------------------------------|
B|---------------------------------------|------------------------------|
G|---------------------------------------|------------------------------|
D|---------------------------------------|------------------------------|
A|------4-4-4-4-4-4-4-4--6-6-6-6-6-6-6-6-|-4~~--4h6-4-3--1~~--1h3-1---x-|
E|-9\---2-2-2-2-2-2-2-2--4-4-4-4-4-4-4-4-|--------------------------4-x-|

Pre Chorus
 |Both guitars
e|----------------------------------|
B|----------------------------------|
G|----------------------------------|
D|----------------------------------|
A|-4-4-4-4-4-4-4-4--6-6-6-6-6-6-6-6-|
E|-2-2-2-2-2-2-2-2--4-4-4-4-4-4-4-4-|

Chorus 2
 |Both guitars
e|-------------------------------------------|-----------------------------|
B|-----------------------66666---------------|-----------------------------|
G|-----------------------66666---------------|-----------------------------|
D|-----------------------66666---------------|-----------------------------|
A|-88888------66666------44444--4/--44444----|-8888-x--6666-x--4444444-----|
E|-66666--6/--44444--4/-------------22222-2/-|-6666-x--4444-x--2222222--2/-|

e|-------------------------------------------|-------------------------|
B|-----------------------66666---------------|-------------------------|
G|-----------------------66666---------------|-------------------------|
D|-----------------------66666---------------|-----------------4444444-|
A|-88888------66666------44444--4/--44444----|-8888-x--6666-x--4444444-|
E|-66666--6/--44444--4/-------------22222-2/-|-6666-x--4444-x--2222222-|

Outro
e|----------------------------------|----------------------------------|
B|----------------------------------|----------------------------------|
G|-3-3-3-3-3-3-3-3--3-3-3-3-3-3-3-x-|-3-3-3-3-3-3-3-3--3-3-3-3-3-3-3-3-|
D|-4-4-4-4-4-4-4-4--4-4-4-4-4-4-4-x-|-4-4-4-4-4-4-4-4--4-4-4-4-4-4-4-4-|
A|-4-4-4-4-4-4-4-4--4-4-4-4-4-4-4-x-|-4-4-4-4-4-4-4-4--4-4-4-4-4-4-4-4-|
E|-2-2-2-2-2-2-2-2--2-2-2-2-2-2-2-x-|-2-2-2-2-2-2-2-2--2-2-2-2-2-2-2-2-|

Lyrics

Verse 1
At the center of the earth
In the parking lot
Of the 7-11 were I was taught
The motto was just a lie

It says home is were your heart is
But what a shame
Cause everyone's heart doesn't beat the same
We're beating out of time; get those fists in the air!

Chorus
City of the dead
At the end of another lost highway
Sign misleading to nowhere
City of the damned
Lost children with dirty faces today
No one really seems to care, get those hands up

Verse 2
I read the graffiti
In the bathroom stall
Like the holy scriptures of a shopping mall
And so it seemed to confess

It didn't say much
But it only confirmed that
The center of the earth is the end of the world
And I could really care less; get those fists in the air!

Chorus
City of the dead
At the end of another lost highway
Sign misleading to nowhere, one more time
City of the damned
Lost children with dirty faces today
No one really seems to care


---------------------------------------------------
III.    I Don't Care

Intro
 |Guitar 1
e|------------------------------------------------------------------|
B|------------------------------------------------------------------|
G|----------6-6-6-----------6-6-6-----------6-6-6-------------------|
D|-6-6-6-6--6-6-6--6-6-6-6--6-6-6--4-4-4-4--6-6-6--6-6-6-6--6-6-6-6-|
A|-6-6-6-6--4-4-4--6-6-6-6--4-4-4--4-4-4-4--4-4-4--6-6-6-6--6-6-6-6-|
E|-4-4-4-4---------4-4-4-4---------2-2-2-2---------4-4-4-4--4-4-4-4-|
 |Guitar 2
e|------------------------------------------------------------------|
B|--------------------------6-4~--2--\7-7~~-7-7-7--6~-4-2--4444/?9~-|
G|----------6-6-6---------------------------------------------------|
D|-6-6-6-6---------6-6-6-6------------------------------------------|
A|------------------------------------------------------------------|
E|------------------------------------------------------------------|

Verse
 |Both guitars
e|------------------------------------------------------------------|
B|------------------------------------------------------------------|
G|----------6-6-6-----------6-6-6-----------6-6-6-------------------|
D|-6-6-6-6--6-6-6--6-6-6-6--6-6-6--4-4-4-4--6-6-6--6-6-6-6--6-6-6-6-| x4
A|-6-6-6-6--4-4-4--6-6-6-6--4-4-4--4-4-4-4--4-4-4--6-6-6-6--6-6-6-6-|
E|-4-4-4-4---------4-4-4-4---------2-2-2-2---------4-4-4-4--4-4-4-4-|

Chorus
 |Both guitars
e|-----------------------------|-----------------------|
B|-----------------------------|-----------------------|
G|-------6-6-6-6-6-6-6-6-------|-6-6-6-6-6-6-6-6-------|
D|-4--6--6-6-6-6-6-6-6-6--7--6-|-6-6-6-6-6-6-6-6--7--6-| x2
A|-4--6--4-4-4-4-4-4-4-4--7--6-|-4-4-4-4-4-4-4-4--7--6-|
E|-2--4-------------------5--4-|------------------5--4-|

Post chorus
 |Guitar 1 only
e|-----------------|
B|-----------------|
G|-----------------|
D|-------------7-6-| x8
A|-bass riff-7-6-|
E|-------------5-4-|

Pre Outro
 |Both guitars
e|-------------------------------------------|----------------------------------------|
B|-------------------------------------------|----------------------------------------|
G|-6-6-6-6-6-6-6-6-------6-6-6-6-6-6-6-6-----|-6-6-6-6-6-6-6-6--------6-6-6-6-6-6-6-6-|
D|-6-6-6-6-6-6-6-6--7-6--6-6-6-6-6-6-6-6--7-6|-6-6-6-6-6-6-6-6--7--6--6-6-6-6-6-6-6-6-|
A|-4-4-4-4-4-4-4-4--7-6--4-4-4-4-4-4-4-4--7-6|-4-4-4-4-4-4-4-4--7--6--4-4-4-4-4-4-4-4-|
E|------------------5-4-------------------5-4|------------------5--4------------------|

Outro
 |Both guitars
e|-----------------------|-----------------------|-----------------------|
B|-----------------------|-----------------------|-----------------------|
G|-------6-6-6-6-6-6-6-6-|-------6-6-6-6-6-6-6-6-|-------6-6-6-6-6-6-6-6-|
D|-4--6--6-6-6-6-6-6-6-6-|-4--6--6-6-6-6-6-6-6-6-|-4--6--6-6-6-6-6-6-6-6-|
A|-4--6--4-4-4-4-4-4-4-4-|-4--6--4-4-4-4-4-4-4-4-|-4--6--4-4-4-4-4-4-4-4-|
E|-2--4------------------|-2--4------------------|-2--4------------------|

e|-----------------------|-------------------------|
B|-----------------------|-------------------------|
G|-------6-6-6-6-6-6-6-6-|------6--6--6------------|
D|-4--6--6-6-6-6-6-6-6-6-|-4-6--6--6--6---7-6---6~-|
A|-4--6--4-4-4-4-4-4-4-4-|-4-6--4--4--4---7-6---6~-|
E|-2--4------------------|-2-4------------5-4---4~-|

Lyrics:

Verse
I don't care if you don't
I don't care if you don't
I don't care if you don't care

I don't care if you don't
I don't care if you don't
I don't care if you don't care

I don't care if you don't
I don't care if you don't
I don't care if you don't care

I don't care if you don't
I don't care if you don't
I don't care if you don't care

I don't care!

Post Chorus
C?mon!
Everyone so full of shit
Born and raised by hypocrites
Hearts recycled but never saved
From the cradle to the grave
We are the kids of war and peace
From England to the Middle East
We are the stories and disciples
Of the Jesus of suburbia

Pre Outro
Land of make believe
And it don't believe in me
Land of make believe
And I don't believe

Outro
And I don't care!
I don't care!
I don't care!
I don't care!
I don't care!


---------------------------------------------------
IV. Dearly Beloved

A minor still ringing

Intro
 |Guitar 2 only
e|------------------|---------------|-----------|
B|------------------|---------------|-----------|
G|------------------|---------------|-----------|
D|-------------4/5--|--5/6----------|--7/8------|
A|-5/6---------2/3--|--3/4----5/6---|--5/6------|
E|-3/4--------------|---------3/4---|-----------|

Verse acoustic effects
 |Guitar 2 only
e|--------------|----------------|-----------|---------------|
B|--------------|----------------|-----------|---------------|
G|--------------|----------------|----5----5-|----5----5-5-x-|
D|-----6------6-|-----6----6-6-x-|----5----5-|----5----5-5-x-|\
A|-----6------6-|-----6----6-6-x-|--3----3---|--3----3-------| \
E|--4------4----|--4-----4-------|-----------|---------------|  \
PM  *      *       *     *          *    *      *    *
                                                                  x5
e|--------------|----------------|-----------|-----------------|  /
B|--------------|----------------|-----------|-----------------| /
G|-----6------6-|-----6----6-6-x-|-----------|---8-----8-8-x---|
D|-----6------6-|-----6----6-6-x-|---6-----6-|---8-----8-8-x---|
A|--4------4----|--4-----4-------|---6-----6-|-6-----6---------|
E|--------------|----------------|-4----4----|-----------------|
PM  *      *       *     *         *    *      *    *

Lyrics

Intro
Dearly beloved are you listening?
I can?t remember a word that you were saying

Verse
Are we demented or am I disturbed?
The space that's in between insane and insecure
Brothers and sisters get those hands up in the air!
Oh therapy, can you please fill the void?
Am I retarded or am I just overjoyed
Nobody's perfect and I stand accused?
For lack of a better word, and that's my best excuse
England!! Ladies and gentle men, Mike Dirnt!


---------------------------------------------------
V.  Tales of Another Broken Home

Intro
 |Both guitars
e|--------------------|
B|--------------------|
G|------------------6-|
D|-6--------------4-6-| x4
A|-6--------------4-4-|
E|-4-bass riff--2---|

Verse
 |Both guitars
e|-------------------------|-------------------------|
B|-------------------------|-------------------------|
G|-----------------------6-|-----------------------6-|
D|-6-6-6-6-6-6-6-6-6--4--6-|-6-6-6-6-6-6-6-6-6--4--6-| x4
A|-6-6-6-6-6-6-6-6-6--4--4-|-6-6-6-6-6-6-6-6-6--4--4-|
E|-4-4-4-4-4-4-4-4-4--2----|-4-4-4-4-4-4-4-4-4--2----|

Chorus
 |Both guitars
e|------------------|------------------|------------------|------------------|
B|------------------|-8--9--8--9--8--9-|------------------|-8--9--8--9--8--9-|
G|-6-----6-----6----|-8--8--8--8--8--8-|-6-----6-----6----|-8--8--8--8--8--8-|
D|-6--6--6--6--6--6-|-8--8--8--8--8--8-|-6--6--6--6--6--6-|-8--8--8--8--8--8-|
A|-4--6--4--6--4--6-|------------------|-4--6--4--6--4--6-|------------------|
E|----4-----4-----4-|------------------|----4-----4-----4-|------------------|

Verse 2
 |Both guitars
e|-------------------------|-------------------------|
B|-------------------------|-------------------------|
G|-----------------------6-|-----------------------6-|
D|-6-6-6-6-6-6-6-6-6--4--6-|-6-6-6-6-6-6-6-6-6--4--6-| x4
A|-6-6-6-6-6-6-6-6-6--4--4-|-6-6-6-6-6-6-6-6-6--4--4-|
E|-4-4-4-4-4-4-4-4-4--2----|-4-4-4-4-4-4-4-4-4--2----|

Chorus 2
 |Both guitars
e|------------------|------------------|------------------|------------------|
B|------------------|-8--9--8--9--8--9-|------------------|-8--9--8--9--8--9-|
G|-6-----6-----6----|-8--8--8--8--8--8-|-6-----6-----6----|-8--8--8--8--8--8-|
D|-6--6--6--6--6--6-|-8--8--8--8--8--8-|-6--6--6--6--6--6-|-8--8--8--8--8--8-|
A|-4--6--4--6--4--6-|------------------|-4--6--4--6--4--6-|------------------|
E|----4-----4-----4-|------------------|----4-----4-----4-|------------------|

e|------------------|------------------|------------------|------------------|
B|------------------|-8--9--8--9--8--9-|------------------|-8--9--8--9--8--9-|
G|-6-----6-----6----|-8--8--8--8--8--8-|-6-----6-----6----|-8--8--8--8--8--8-|
D|-6--6--6--6--6--6-|-8--8--8--8--8--8-|-6--6--6--6--6--6-|-8--8--8--8--8--8-|
A|-4--6--4--6--4--6-|------------------|-4--6--4--6--4--6-|------------------|
E|----4-----4-----4-|------------------|----4-----4-----4-|------------------|

Pre solo
 |Guitar 1
e|-------------------------|-------------------------------|
B|-------------------------|-------------------------------|
G|---6---------------------|---6-------------------------6-|
D|-4-6---------------------|-4-6----------------------4--6-|
A|-4-4---------------------|-4-4----------------------4--4-|
E|-2-----------------------|-2------------------------2----|
 |Guitar 2
e|-------------------------|-------------------------------|
B|------9-9--9-9--9-9--9-9-|------9-9--9-9--9-9--9-9-------|
G|---6--x-x--x-x--x-x--x-x-|---6--x-x--x-x--x-x--x-x-----6-|
D|-4-6--6-6--6-6--6-6--6-6-|-4-6--6-6--6-6--6-6--6-6--4--6-|
A|-4-4---------------------|-4-4----------------------4--4-|
E|-2-----------------------|-2------------------------2----|

Solo part 1
 |Guitar 1
e|-------------------------|-------------------------|--------------------------|
B|-------------------------|-------------------------|--------------------------|
G|-----------------------6-|-----------------------6-|-----------------------6--|
D|-6-6-6-6-6-6-6-6-6--4--6-|-6-6-6-6-6-6-6-6-6--4--6-|-6-6-6-6-6-6-6-6-6--4--6--|
A|-6-6-6-6-6-6-6-6-6--4--4-|-6-6-6-6-6-6-6-6-6--4--4-|-6-6-6-6-6-6-6-6-6--4--4--|
E|-4-4-4-4-4-4-4-4-4--2----|-4-4-4-4-4-4-4-4-4--2----|-4-4-4-4-4-4-4-4-4--2-----|
 |Guitar 2
e|------------------------------------------------------------------------------|
B|--13----16--------14-19-14-16v-----------------16---13------------------11-14-|
G|---x-----x---------x--x--x--x-------------------x----x-------------------x--x-|
D|--10----13--------11-15-11-13v-----------------13---10-------------------8-11-|
A|------------------------------------------------------------------------------|
E|------------------------------------------------------------------------------|

 |Guitar 1
e|-------------------------|-------------------------|--------------------------|
B|-------------------------|-------------------------|--------------------------|
G|-----------------------6-|-----------------------6-|-----------------------6--|
D|-6-6-6-6-6-6-6-6-6--4--6-|-6-6-6-6-6-6-6-6-6--4--6-|-6-6-6-6-6-6-6-6-6--4--6--|
A|-6-6-6-6-6-6-6-6-6--4--4-|-6-6-6-6-6-6-6-6-6--4--4-|-6-6-6-6-6-6-6-6-6--4--4--|
E|-4-4-4-4-4-4-4-4-4--2----|-4-4-4-4-4-4-4-4-4--2----|-4-4-4-4-4-4-4-4-4--2-----|
 |Guitar 2
e|------------------------------------------------------------------------------|
B|-11-13--------------13----16--------14-19-14-16v-------------------16--13-----|
G|--x--x---------------x-----x---------x--x--x--x---------------------x---x-----|
D|--8-10--------------10----13--------11-15-11-13v-------------------13--10-----|
A|------------------------------------------------------------------------------|
E|------------------------------------------------------------------------------|

 |Guitar 1
e|-------------------------|-------------------------|
B|-------------------------|-------------------------|
G|-----------------------6-|-----------------------6-|
D|-6-6-6-6-6-6-6-6-6--4--6-|-6-6-6-6-6-6-6-6-6--4--6-|
A|-6-6-6-6-6-6-6-6-6--4--4-|-6-6-6-6-6-6-6-6-6--4--4-|
E|-4-4-4-4-4-4-4-4-4--2----|-4-4-4-4-4-4-4-4-4--2----|
 |Guitar 2
e|---------------------------------------------------|
B|-----11--14--11--13--------------------------------|
G|------x---x---x---x--------------------------------|
D|------8--11---8--10--------------------------------|
A|---------------------------------------------------|
E|---------------------------------------------------|

Solo
 |Guitar 1
e|-------------------------------------|------------------------------------|
B|-------------------------------------|-8-----9-----8-----9-----8-----9----|
G|-6-----------6------------6----------|-8-----8-----8-----8-----8-----8----|
D|-6-----6-----6-----6------6------6---|-8-----8-----8-----8-----8-----8----|
A|-4-----6-----4-----6------4------6---|------------------------------------|
E|-------4-----------4-------------4---|------------------------------------|
 |Guitar 2
e|-------------------------------------|------------------------------------|
B|-7p6----9p6----7p6----9p6----7p6-----|-9p8---11p8---9p8---11p8---9p8------|
G|-----6------6------6------6------6/8-|-----8------8-----8------8------8\6-|
D|-------------------------------------|------------------------------------|
A|-------------------------------------|------------------------------------|
E|-------------------------------------|------------------------------------|

 |Guitar 1
e|-------------------------------------|------------------------------------|
B|-------------------------------------|-8-----9-----8-----9-----8-----9----|
G|-6-----------6------------6----------|-8-----8-----8-----8-----8-----8----|
D|-6-----6-----6-----6------6------6---|-8-----8-----8-----8-----8-----8----|
A|-4-----6-----4-----6------4------6---|------------------------------------|
E|-------4-----------4-------------4---|------------------------------------|
 |Guitar 2
e|-------------------------------------|------------------------------------|
B|-7p6----9p6----7p6----9p6----7p6-----|-9p8---11p8---9p8---11p8---9p8------|
G|-----6------6------6------6------6/8-|-----8------8-----8------8------8\6-|
D|-------------------------------------|------------------------------------|
A|-------------------------------------|------------------------------------|
E|-------------------------------------|------------------------------------|

Piano Break
Piano transcribed for guitar
Fm: x355xx
Eb: x688xx
Ab: 466xxx
Db: x466xx


Fm               Eb            Ab         Db
   I don't feel any shame -I wont apologize

Db                   Eb              Ab      play a harmonic on fret 13 then 14
    When there ain't nowhere you can go       on the b string

Db             Eb                  Ab               Db
   Running away from pain -When you've been victimized


Db               Eb
    Tales from another broken...

Outro
 |Both guitars
e|-------------------------|-------------------------|
B|-------------------------|-------------------------|
G|-----------------------6-|-----------------------6-|
D|-6-6-6-6-6-6-6-6-6--4--6-|-6-6-6-6-6-6-6-6-6--4--6-| x2
A|-6-6-6-6-6-6-6-6-6--4--4-|-6-6-6-6-6-6-6-6-6--4--4-|
E|-4-4-4-4-4-4-4-4-4--2----|-4-4-4-4-4-4-4-4-4--2----|

 |Guitar 1
e|-------------------------------------------------------|
B|-------------------------------------------------------|
G|-----------------------6---------------------------6---|
D|---------------------4-6-6----------------------4--6-6-|
A|---------------------4-4-6----------------------4--4-6-|
E|---------------------2---4----------------------2----4-|
 |Guitar 2
e|-------------------------------------------------------|
B|-9-9--9-9--9-9--9-9---------9-9--9-9--9-9--9-9---------|
G|-x-x--x-x--x-x--x-x----6----x-x--x-x--x-x--x-x-----6---|
D|-6-6--6-6--6-6--6-6--4-6-6--6-6--6-6--6-6--6-6--4--6-6-|
A|---------------------4-4-6----------------------4--4-6-|
E|---------------------2---4----------------------2----4-|

Lyrics

Verse 1
To live and not to breathe
Is to die in tragedy
To run, to run away
To find what you believe

Chorus
C?mon
And I
Leave behind
This hurricane of fucking lies

Verse 2
I lost my faith to this
This town that don't exist
So I run, I run away
The light of masochist

Chorus
C?mon
And I
Leave behind
This hurricane of fucking lies
And I
Walked this line
A million and one fucking times

But not this time

Here we go!

Piano Break
I don't feel any shame
I wont apologise
When there ain't nowhere you can go
Running away from pain
When you've been victimized
Tales from another broken...

Outro
Home!
You're leavin'
You're leavin'
You're leavin'
You're leavin HOME!


-----------------------------------------------------------------------------------------
Green Day
Holiday

Guitar 1 ?EADGBe ?Billie Joe Armstrong
Guitar 2 ?EADGBe ?Jason White

Intro
 |Guitar 2 only
E|--------------------------------------|---------------------------------|
B|--9--9--9--6-6-6--13--13--13--8-8-8-8-|--9--9--9--6-6-6--13--13--13--8--|
G|--x--x--x--6-6-6--13--13--13--8-8-8-8-|--x--x--x--6-6-6--13--13--13--8--|
D|--x--x--x--x-x-x---x---x---x--x-x-x-x-|--x--x--x--x-x-x---x---x---x--x--| x2
A|--8--8--8--4-4-4--11--11--11--6-6-6-6-|--8--8--8--4-4-4--11--11--11--6--|
E|--------------------------------------|---------------------------------|

Intro
 |Guitar 1
E|----------|
B|----------|
G|-x-x-x-x--| (this is played just as Jason is finishing
D|-x-x-x-x--|  the second repeat of his intro)
A|-x-x-x-x--|
E|-x-x-x-x--|

Pre Verse
 |Both guitars
E|---------------------------------|---------------------------------|
B|---------------------------------|---------------------------------|
G|-10-10-10--6-6-6---------8-8-8-8-|-10-10-10--6-6-6---------8-8-8-8-|
D|-10-10-10--6-6-6--6-6-6--8-8-8-8-|-10-10-10--6-6-6--6-6-6--8-8-8-8-|
A|--8--8--8--4-4-4--6-6-6--6-6-6-6-|--8--8--8--4-4-4--6-6-6--6-6-6-6-|
E|------------------4-4-4----------|------------------4-4-4----------|

Verse
 |Guitar 2 only
E|---------------------------------|---------------------------------|
B|---------------------------------|---------------------------------|
G|-10-10-10--6-6-6---------8-8-8-8-|-10-10-10--6-6-6---------5-5-5-5-|
D|-10-10-10--6-6-6--6-6-6--8-8-8-8-|-10-10-10--6-6-6--6-6-6--5-5-5-5-|
A|--8--8--8--4-4-4--6-6-6--6-6-6-6-|--8--8--8--4-4-4--6-6-6--3-3-3-3-|
E|------------------4-4-4----------|------------------4-4-4----------|

E|----------------------------------------------------|
B|----------------------------------------------------|
G|-10-10-10--6-6-6---------8-8-8-8--5-5-5-5-5-5-5-5-5-|
D|-10-10-10--6-6-6--6-6-6--8-8-8-8--5-5-5-5-5-5-5-5-5-| x2
A|--8--8--8--4-4-4--6-6-6--6-6-6-6--3-3-3-3-3-3-3-3-3-|
E|------------------4-4-4-----------------------------|

Chorus
 |Both guitars
E|--------------------------------------|------------------------------------------|
B|--------------------------------------|------------------------------------------|
G|---------6-6-6-6----------8-8-8-8-8-8-|----------6-6-6-6----------5-5-5-5-5-5-5-5|
D|3-3-3-3--6-6-6-6-6-6-6-6--8-8-8-8-8-8-|-3-3-3-3--6-6-6-6-6-6-6-6--5-5-5-5-5-5-5-5|
A|3-3-3-3--4-4-4-4-6-6-6-6--6-6-6-6-6-6-|-3-3-3-3--4-4-4-4-6-6-6-6--3-3-3-3-3-3-3-3|
E|1-1-1-1----------4-4-4-4--------------|-1-1-1-1----------4-4-4-4-----------------|

Pre Verse 2
 |Guitar 2 only
E|--------------------------------------|---------------------------------|
B|--9--9--9--6-6-6--13--13--13--8-8-8-8-|--9--9--9--6-6-6--13--13--13--8--|
G|--x--x--x--6-6-6--13--13--13--8-8-8-8-|--x--x--x--6-6-6--13--13--13--8--|
D|--x--x--x--x-x-x---x---x---x--x-x-x-x-|--x--x--x--x-x-x---x---x---x--x--|
A|--8--8--8--4-4-4--11--11--11--6-6-6-6-|--8--8--8--4-4-4--11--11--11--6--|
E|--------------------------------------|---------------------------------|

Verse 2
 |Guitar 2 only
E|---------------------------------|---------------------------------|
B|---------------------------------|---------------------------------|
G|-10-10-10--6-6-6---------8-8-8-8-|-10-10-10--6-6-6---------5-5-5-5-|
D|-10-10-10--6-6-6--6-6-6--8-8-8-8-|-10-10-10--6-6-6--6-6-6--5-5-5-5-|
A|--8--8--8--4-4-4--6-6-6--6-6-6-6-|--8--8--8--4-4-4--6-6-6--3-3-3-3-|
E|------------------4-4-4----------|------------------4-4-4----------|

E|----------------------------------------------------|
B|----------------------------------------------------|
G|-10-10-10--6-6-6---------8-8-8-8--5-5-5-5-5-5-5-5-5-|
D|-10-10-10--6-6-6--6-6-6--8-8-8-8--5-5-5-5-5-5-5-5-5-| x2
A|--8--8--8--4-4-4--6-6-6--6-6-6-6--3-3-3-3-3-3-3-3-3-|
E|------------------4-4-4-----------------------------|

Chorus 2
 |Both guitars
E|--------------------------------------|------------------------------------------|
B|--------------------------------------|------------------------------------------|
G|---------6-6-6-6----------8-8-8-8-8-8-|----------6-6-6-6----------5-5-5-5-5-5-5-5|
D|3-3-3-3--6-6-6-6-6-6-6-6--8-8-8-8-8-8-|-3-3-3-3--6-6-6-6-6-6-6-6--5-5-5-5-5-5-5-5|
A|3-3-3-3--4-4-4-4-6-6-6-6--6-6-6-6-6-6-|-3-3-3-3--4-4-4-4-6-6-6-6--3-3-3-3-3-3-3-3|
E|1-1-1-1----------4-4-4-4--------------|-1-1-1-1----------4-4-4-4-----------------|


Bridge
|Both Guitars                        ?hey?
E|-------------------|------------------|-------------------|--------------------|
B|-------------------|------------------|-------------------|--------------------|
G|----------6---8----|----------8----10-|----------6---8----|----------8----10---|
D|3-3---6-6-6-8-8-10-|3-3---6-6-8-10-10-|3-3---6-6-6-8-8-10-|3-3---6-6-8-10-10-10|
A|3-3---6-6-4-8-6-10-|3-3---6-6-6-10--8-|3-3---6-6-4-8-6-10-|3-3---6-6-6-10--8-10|
E|1-1-3-4-4---6----8-|1-1-3-4-4---8-----|1-1-3-4-4---6----8-|1-1-3-4-4---8------8|

Solo
 |Guitar 1
e|--------------------------------------------|
B|--------------------------------------------|
G|-6-6-6-6------------5-5-5-5--10-10-10-10-10-|
D|-6-6-6-6--6-6-6-6-6-5-5-5-5--10-10-10-10-10-|
A|-4-4-4-4--6-6-6-6-6-3-3-3-3---8--8--8--8--8-|
E|----------4-4-4-4-4-------------------------|
 |Guitar 2
E|------------------------------------8-----8-|
B|-666-8-9------------8-------------6----6----|
G|----------8-6-555-5---5--9-5---5------------|
D|--------------------------------------------|
A|--------------------------------------------|
E|--------------------------------------------|

 |Guitar 1
e|-------------------------------------------------------------------------|
B|-------------------------------------------------------------------------|
G|-6-6-6-6-------------55555555-55555555--5-5-5-5-5-5-5-5-5-5-5-5-5-5-5----|
D|-6-6-6-6--6-6-6-6-6--55555555-55555555--5-5-5-5-5-5-5-5-5-5-5-5-5-5-5----|
A|-4-4-4-4--6-6-6-6-6--33333333-33333333--3-3-3-3-3-3-3-3-3-3-3-3-3-3-3----|
E|----------4-4-4-4-4------------------------------------------------------|
 |Guitar 2
E|------------------------------99999999-121212121212121212121212121212-13~~|
B|-666-8-9-------------88888888---------------------------------------------|
G|----------8-6-555-5/------------------------------------------------------|
D|--------------------------------------------------------------------------|
A|--------------------------------------------------------------------------|
E|--------------------------------------------------------------------------|

 Bass Interlude
G|-------------------|----------------------|
D|-------------------|----------------------|
A|----------4---6----|----------6-----8-----| x6
E|1-1-3-4-4---6----8-|1-1-3-4-4----8-----8\-|

Guitar 2 plays this at the end of the 7th repeat of the bass interlude
E|-------------------|----------------------|
B|-------------------|----------------------|
G|-------------------|----------------------|
D|-------------------|----------------------|
A|-------------------|----------------------|
E|-------------------|------------------16\-|

Both guitars play this at the end of the 9th repeat of the bass interlude
E|-------------------|----------------------|
B|-------------------|----------------------|
G|-------------------|----------8----10-----|
D|-------------------|----------8-10-10-10\-|
A|-------------------|----------6-10--8-10\-|
E|-------------------|-------------8-----8\-|

Post interlude
 |Guitar 2 only
E|----------------------------------------------------|
B|----------------------------------------------------|
G|-3/5~~---------------------3/5~~--------------------|
D|-3/5~~-55555555-555555555--3/5~~-55555555-555555555-|
A|-1/3~~-33333333-333333333--1/3~~-33333333-333333333-|
E|----------------------------------------------------|

Chorus 3
 |Both Guitars
E|-------------------------------------------------------------------------|
B|-------------------------------------------------------------------------|
G|---------6-6-6-6----------8-8-8-8-8-8-----------6-6-6-6----------5-5-5-5-|
D|3-3-3-3--6-6-6-6-6-6-6-6--8-8-8-8-8-8--3-3-3-3--6-6-6-6-6-6-6-6--5-5-5-5-|
A|3-3-3-3--4-4-4-4-6-6-6-6--6-6-6-6-6-6--3-3-3-3--4-4-4-4-6-6-6-6--3-3-3-3-|
E|1-1-1-1----------4-4-4-4---------------1-1-1-1----------4-4-4-4----------|

E|--------------------------------------------------------------------------------|
B|--------------------------------------------------------------------------------|
G|---------6-6-6-6----------8-8-8-8-8-8-----------6-6-6-6----------5-5-5-5-5-5-5-5|
D|3-3-3-3--6-6-6-6-6-6-6-6--8-8-8-8-8-8--3-3-3-3--6-6-6-6-6-6-6-6--5-5-5-5-5-5-5-5|
A|3-3-3-3--4-4-4-4-6-6-6-6--6-6-6-6-6-6--3-3-3-3--4-4-4-4-6-6-6-6--3-3-3-3-3-3-3-3|
E|1-1-1-1----------4-4-4-4---------------1-1-1-1----------4-4-4-4-----------------|

E|---------------------------------------------------|
B|---------------------------------------------------|
G|-5-5-5-5-5-5-5-5--5-5-5-5-5-5-5-5--5-5-5-5-5-5-5-5-|
D|-5-5-5-5-5-5-5-5--5-5-5-5-5-5-5-5--5-5-5-5-5-5-5-5-|
A|-3-3-3-3-3-3-3-3--3-3-3-3-3-3-3-3--3-3-3-3-3-3-3-3-|
E|---------------------------------------------------|

Outro
 |Guitar 1
E|-------------------------------------------------------------------|
B|-------------------------------------------------------------------|
G|--------------------|Currently Tacet|------------------------------|
D|-------------------------------------------------------------------|
A|-------------------------------------------------------------------|
E|-------------------------------------------------------------------|
 |Guitar 2
E|---------------------------------|---------------------------------|
B|---------------------------------|---------------------------------|
G|-10-10-10--6-6-6---------8-8-8-8-|-10-10-10--6-6-6---------8-8-8-8-|
D|-10-10-10--6-6-6--6-6-6--8-8-8-8-|-10-10-10--6-6-6--6-6-6--8-8-8-8-|
A|--8--8--8--4-4-4--6-6-6--6-6-6-6-|--8--8--8--4-4-4--6-6-6--6-6-6-6-|
E|------------------4-4-4----------|------------------4-4-4----------|

 |Guitar 1
E|---------------------------------|---------------------------------|
B|---------------------------------|---------------------------------|
G|-10~~~~~~~~----------------------|-10-10-10--6-6-6--8----10?-------|
D|--x~~~~~~~~----------------------|-10-10-10--6-6-6--8-10-10--3~~~--|
A|--8~~~~~~~~----------------------|--8--8--8--4-4-4--6-10--8--3~~~--|
E|---------------------------------|---------------------8-----1~~~--|
 |Guitar 2
E|---------------------------------|---------------------------------|
B|---------------------------------|---------------------------------|
G|-10-10-10--6-6-6---------8-8-8-8-|-10-10-10--6-6-6--8----10?-------|
D|-10-10-10--6-6-6--6-6-6--8-8-8-8-|-10-10-10--6-6-6--8-10-10--3~~~--|
A|--8--8--8--4-4-4--6-6-6--6-6-6-6-|--8--8--8--4-4-4--6-10--8--3~~~--|
E|------------------4-4-4----------|---------------------8-----1~~~--|


Verse 1
Hear the sound of the falling rain
Coming down like an Armageddon flame [Hey!]
The shame, the ones who died without a name
Here the dogs howling out of key
To a hymn called ?faith and misery? [Hey!]
And Bleed, the company lost the war today

Chorus
I beg to dream and differ from the hollow lies
This is the dawning of the rest of our lives
On holiday

Verse 2
There's a drum pounding out of time
Another protestor has crossed the line [Hey!]
To find, the money's on the other side. Brothers and sisters!
Can I get another Amen?  [Amen!]
There's a flag wrapped around the score of men [Hey!]
A gag, A plastic bag on a monument

Chorus
I beg to dream and differ from the hollow lies
This is the dawning of the rest of our lives
On holiday

Bass Interlude
The representative of United Kingdom has the floor:
Zieg Heil! To the president gas Man
Bombs away! Is your punishment
Pulverize the Eiffel Towers
Criticize your government
Bang, Bang! Goes the broken glass man
Kill all the fags that don't agree
Trials by fires, setting fire
It's not a way that's meant for me

Post Interlude
Just cause... just cause - because we're outlaws yeah!
Backing vocals {hey, hey, hey, hey, hey, hey]

Chorus 3
I beg to dream and differ from the hollow lies
This is the dawning of the rest of our lives
On holiday
I beg to dream and differ from the hollow lies
This is the dawning of the rest of our lives
This is our lives on holiday

Outro
England!

-----------------------------------------------------------------------------------------
Green Day
Are we Waiting

Guitar 1 ?EADGBe ? Jason White
Guitar 2 ?EADGBe ? the other guitarist guy don?t know his name?

Intro
 |Guitar 1
e|------------------------------------2-----------2-------|
B|-------2-----------2--------------3---3-------3---3-----|
G|-----2---2-------2---2----------2-------2---2-------2---|
D|---2-------2---2-------2------0-----------0-------------|
A|-0-----------0------------------------------------------|
E|--------------------------------------------------------|

Verse
 |Guitar 1
e|-------------------------------------2-----------2-------|
B|--------2-----------2--------------3---3-------3---3-----|
G|------2---2-------2---2----------2-------2---2-------2---|
D|----2-------2---2-------2------0-----------0-------------|\
A|--0-----------0------------------------------------------| \
E|---------------------------------------------------------|  \
 |Guitar 2 slide played first before A chord                 x3
e|-----------------------------------------------------------|  /
B|-----------------------------------------------------------| /
G|--2~~~-------------------------7~~-------------------------|
D|--2~~~-------------------------7~~-------------------------|
A|--0~~~-------------------------5~~-------------------------|
E|-----------------------------------------------------------|

Pre Chorus
 |Guitar 1
e|------------------------------------------------------------|
B|---------10---------------9-------------7-------------7-----|
G|------11----11----------9---9---------7---7---------7---7---|
D|---11----------11-----9-------9-----7-------7-----7-------7-|
A|-9------------------7-------------5-------------5-----------|
E|------------------------------------------------------------|
 |Guitar 2
e|------------------------------------------------------------|
B|------------------------------------------------------------|
G|----------------------------------7~~-----------------------|
D|-4~~----------------2~~-----------7~~-----------------------|
A|-4~~----------------2~~-----------5~~-----------------------|
E|-2~~----------------0~~-------------------------------------|

 |Guitar 1
e|---------------------------------------------------------------|
B|---------10---------------9--------9\7-----7-------------7-----|
G|------11----11----------9---9------9\7-------7---------7---7---|
D|---11----------11-----9------------9\7--7------7-----7-------7-|
A|-9------------------7----------7-------------------5-----------|
E|---------------------------------------------------------------|
 |Guitar 2
e|---------------------------------------------------------------|
B|---------------------------------------------------------------|
G|----------------------------------7~~--------------------------|
D|-4~~----------------2~~-----------7~~--------------------------|
A|-4~~----------------2~~-----------5~~--------------------------|
E|-2~~----------------0~~----------------------------------------|

Chorus 1
 |Guitar 1
e|-------------------------------------2-----------2-------|
B|--------2-----------2--------------3---3-------3---3-----|
G|------2---2-------2---2----------2-------2---2-------2---|
D|----2-------2---2-------2------0-----------0-------------|\
A|--0-----------0------------------------------------------| \
E|---------------------------------------------------------|  \
 |Guitar 2 slide played first before A chord                 x2
e|-----------------------------------------------------------|  /
B|-----------------------------------------------------------| /
G|--2~~~-------------------------7~~-------------------------|
D|--2~~~-------------------------7~~-------------------------|
A|--0~~~-------------------------5~~-------------------------|
E|-----------------------------------------------------------|

Verse 2
 |Guitar 1
e|-------------------------------------2-----------2-------|
B|--------2-----------2--------------3---3-------3---3-----|
G|------2---2-------2---2----------2-------2---2-------2---|
D|----2-------2---2-------2------0-----------0-------------|\
A|--0-----------0------------------------------------------| \
E|---------------------------------------------------------|  \
 |Guitar 2 slide played first before A chord                 x3
e|-----------------------------------------------------------|  /
B|-----------------------------------------------------------| /
G|--2~~~-------------------------7~~-------------------------|
D|--2~~~-------------------------7~~-------------------------|
A|--0~~~-------------------------5~~-------------------------|

Pre Chorus 2
 |Guitar 1
e|------------------------------------------------------------|
B|---------10---------------9-------------7-------------7-----|
G|------11----11----------9---9---------7---7---------7---7---|
D|---11----------11-----9-------9-----7-------7-----7-------7-|
A|-9------------------7-------------5-------------5-----------|
E|------------------------------------------------------------|
 |Guitar 2
e|------------------------------------------------------------|
B|------------------------------------------------------------|
G|----------------------------------7~~-----------------------|
D|-4~~----------------2~~-----------7~~-----------------------|
A|-4~~----------------2~~-----------5~~-----------------------|
E|-2~~----------------0~~-------------------------------------|

 |Guitar 1
e|---------------------------------------------------------------|
B|---------10---------------9--------9\7-----7-------------7-----|
G|------11----11----------9---9------9\7-------7---------7---7---|
D|---11----------11-----9------------9\7--7------7-----7-------7-|
A|-9------------------7----------7-------------------5-----------|
E|---------------------------------------------------------------|
 |Guitar 2
e|---------------------------------------------------------------|
B|---------------------------------------------------------------|
G|----------------------------------7~~--------------------------|
D|-4~~----------------2~~-----------7~~--------------------------|
A|-4~~----------------2~~-----------5~~--------------------------|
E|-2~~----------------0~~----------------------------------------|

Chorus 2
 |Guitar 1
e|-------------------------------------2-----------2-------|
B|--------2-----------2--------------3---3-------3---3-----|
G|------2---2-------2---2----------2-------2---2-------2---|
D|----2-------2---2-------2------0-----------0-------------|\
A|--0-----------0------------------------------------------| \
E|---------------------------------------------------------|  \
 |Guitar 2 slide played first before A chord                 x5
e|-----------------------------------------------------------|  /
B|-----------------------------------------------------------| /
G|--2~~~-------------------------7~~-------------------------|
D|--2~~~-------------------------7~~-------------------------|
A|--0~~~-------------------------5~~-------------------------|

Lyrics

Verse 1
Starry nights city lights
Coming down over me
Skyscrapers and stargazers
In my head
Are we, we are, Are we, we are
The waiting unknown

(Pre-Chorus)
This dirty town is burning down in my dreams
Lost and found city bound in my dreams. C?mon!

Chorus
And screaming
Are we, we are, Are we, we are the waiting
And screaming
Are we, we are, Are we, we are the waiting

Verse 2
Forget me nots and second thoughts
Live in isolation
Heads or tails, fairytales
In my mind. C?mon!
Are we, we are, Are we, we are
The waiting unknown

(Pre-Chorus)
The rage and love, story of my life
The Jesus of suburbia is a lie. C?mon!

Chorus 2
And screaming
Are we, we are, Are we, we are the waiting
And screaming
Are we, we are, Are we, we are the waiting unknown
Are we, we are, Are we, we are the waiting
And screaming
Are we, we are, Are we, we are the waiting unknown
Are we, we are, Are we, we are the waiting unknown


-----------------------------------------------------------------------------------------
Green Day St. Jimmy
American Idiot

Guitar 1 ?EADGBe ? Jason White
Guitar 2 ?EADGBe ? the other guitarist guy don?t know his name?

Intro
 |Guitar 1
e|-----------------------------------------------------------------------------|
B|-----------------------------------------------------------------------------|
G|-----------------------------------------------------------------------------|
D|-----------------------------------------------------------------------------|
A|---00000000000000000000000000000000-----00000000000000000000000000000000-----|
E|-----------------------------------------------------------------------------|
PM   ********************************     ********************************
 |Guitar 2
e|-----------------------------------------------------------------------------|
B|-----------------------------------------------------------------------------|
G|------------------------------------7------------------------------------7---|
D|-7----------------------------------7-7----------------------------------7-7-|
A|-7----------------------------------5-7----------------------------------5-7-|
E|-5------------------------------------5------------------------------------5-|

 |Guitar 1
e|------------------------------------------------------------------------------|
B|------------------------------------------------------------------------------|
G|---------------------------------------------------------------------------

Fuente: Lacuerda