a b c d e f g h i j k l m n o p q r s t u v w x y z 0-9

Brain Stew

Green Day

			
e.----------------------------------------------------.
b.----------------------------------------------------.
g.----------------------------------------------------.
d.-7-7--5-5--4-4--3-3--2-2---7-7--5-5--4-4--3-3--2-2--.
a.-7-7--5-5--4-4--3-3--2-2---7-7--5-5--4-4--3-3--2-2--.
E.-5-5--3-3--2-2--1-1--0-0---5-5--3-3--2-2--1-1--0-0--.

e.--------------------------------------------------------.
b.--------------------------------------------------------.
g.--------------------------------------------------------.
d.-7-7xx-5-5xx-4-4xx3-3xx-2-2xx--7-7--5-5--4-4--3-3--2-2--.
a.-7-7xx-5-5xx-4-4xx3-3xx-2-2xx--7-7--5-5--4-4--3-3--2-2--.
E.-5-5xx-3-3xx-2-2xx1-1xx-0-0xx--5-5--3-3--2-2--1-1--0-0--.

Fuente: Tusacordes