a b c d e f g h i j k l m n o p q r s t u v w x y z 0-9

Boulevard Of Broken Dreams

Green Day

			
e|---------4--------------------
b|-----------5--3-1-3-1-3-5-3-1-
g|-2-2-4-5---------------------2
d|------------------------------
a|------------------------------
e|------------------------------

I walk a lonely road 
the only one that i have ever known 

e|-------4--------------------
b|---------5--3-1-3-1-3-5-3-1-
g|-2-4-5---------------------2
d|----------------------------
a|----------------------------
e|----------------------------

don't know were it goes 
but it's home to me and i walk alone 


e|------------
b|-0-1-5-3-0-1
g|------------
d|------------
a|------------
e|------------


e|---------4--------------------
b|-----------5--3-1-3-1-3-5-3-1-
g|-2-2-4-5---------------------2
d|------------------------------
a|------------------------------
e|------------------------------

I walk this empty street 
on the boulevard of broken dreams 

e|-------4--------------------
b|---------5--3-1-3-1-3-5-3-1-
g|-2-4-5---------------------2
d|----------------------------
a|----------------------------
e|----------------------------

where the city sleeps 
and i'm the only one and i walk alone


e|-----------------
b|-0-1-5-3-0-1--1--
g|----------------2
d|-----------------
a|-----------------
e|-----------------

I walk alone, i walk alone

e|-----------------
b|-0-1-5-3-0-1--1--
g|----------------2
d|-----------------
a|-----------------
e|-----------------

i walk alone an' i walk a


e|-6-4------------------
b|-----1-3-1-3-1-3-5-3-1
g|----------------------
d|----------------------
a|----------------------
e|----------------------

My shadow's the only one that walks beside me 

e|-6-4------------------
b|-----1-3-1-3-1-3-5-3-1
g|----------------------
d|----------------------
a|----------------------
e|----------------------

my shallow hearts the only thing that's beating 

e|-6-4------------------
b|-----1-3-1-3-1-3-5-3-1
g|----------------------
d|----------------------
a|----------------------
e|----------------------

sometimes i wish someone out there will find me

e|-6-4---6------
b|-----1---5-3-5
g|--------------
d|--------------
a|--------------
e|--------------

til then i walk alone 


Y después se va repitiendo desde arriba...

Fuente: Tusacordes