a b c d e f g h i j k l m n o p q r s t u v w x y z 0-9

Basket Case

Green Day

			
E5                 B5                C#5
E -----------------------------------------------------|
B -----------------------------------------------------|
G -----------------------------------------------------|
D ------------------4-4-4-4-4-4-4-4--6-6-6-6-6-6-6-6---|
A -2-2-2-2-2-2-2-2--2-2-2-2-2-2-2-2--4-4-4-4-4-4-4-4---|
E -0-0-0-0-0-0-0-0-------------------------------------|

  C#5        G#5              A5               E5
E -----------------------------------------------------------|
B -----------------------------------------------------------|
G -----------------------------------------------------------|
D -6-------------------2-2-2-2-2-2-2-2---------------------|
A -4--6-6-6-6-6-6-6-6--0-0-0-0-0-0-0-0--2-2-2-2-2-2-2-2----|
E ------4-4-4-4-4-4-4-4-------------------0-0-0-0-0-0-0-0----|

   E5       B5                 B5
E ----------------------------------------| x2 SP
B ----------------------------------------| sp= sordina de palma
G ----------------------------------------|
D -----4-4-4-4-4-4-4-4--4-4-4-4-4-4-4-4---|
A -2-2-2-2-2-2-2-2-2--2-2-2-2-2-2-2-2---|
E -0------------------------------------|

     A5                  B5                 E5   
E ----------------------------------------------------|x2 SP
B ----------------------------------------------------| 
G ----------------------------------------------------|
D -2-2-2-2-2-2-2-2--4-4-4-4-4-4-4-4-------------------|
A -0-0-0-0-0-0-0-0--2-2-2-2-2-2-2-2--2-2-2-2-2-2-2-2--|
E -----------------------------------0-0-0-0-0-0-0-0--|

     A5                   B5         E5  D#5 C#5 A5  B5
E --------------------------------------------------------|
B --------------------------------------------------------|
G --------------------------------------------------------|
D -2-2-2-2-2-2-2-2--4-4-4-4-4-4-4-4---9---8---6---2---4---|
A -0-0-0-0-0-0-0-0--2-2-2-2-2-2-2-2---7---6---4---0---2---|
E --------------------------------------------------------|

   E5       B5      C#5     B5
E -----------------------------------|x2
B -----------------------------------|
G -----------------------------------|
D -9--9----4--4----6--6----4--4------|
A -7--7----2--2----4--4----2--2------|
E -----------------------------------|

bueno me la se asta ahi! ja
BYE

Fuente: tusacordes.com