a b c d e f g h i j k l m n o p q r s t u v w x y z 0-9

Basket Case

Green Day

			
Basket Case 
by Green Day 
from the album Dookie

|-------------------------------------------------------------------
|-------------------------------------------------------------------
|-----------2-2-2-2-2--4-4-4-4-------------------7-7-7-7-7--2-2-2-2-
|-0-0-0-0-0--------------------4-4-4-4-4-5-5-5-5--------------------

|---------------------------------------------------
|---------------------------------------------------
|--------------------------------7-------7----7--7--
|--5-5-5-5-5-7-7-7-7-7-7-7-7-7-7---7-7-7---7--------

|-------------------------------------------------------------------
|-------------------------------------------------------------------
|---------------2-2-2-2-2-2-2--7-6-4---------2-2-2-2-7-2-2-4-4-2-2--
|-5-5-5-5-5-5-5----------------------5-5-5-5------------------------

|-------------------------------------------------------------------
|-------------------------------------------------------------------
|---7--7--7--7--7--4--4--4--4--4--4-------7--2----------------------
|-------------------------------------5-----------------------------

Fuente: tusacordes.com