a b c d e f g h i j k l m n o p q r s t u v w x y z 0-9

At The Library

Green Day

			


Intro
e|---------------------------------------------------------------------------|
B|---------------------------------------------------------------------------|
G|-7-7-7-7-5-5-5-5-7-7-7-7-5-5-5-5-7-7-7-7-5-5-5-5--4-4-4-4-4----------------|
D|-7-7-7-7-5-5-5-5-7-7-7-7-5-5-5-5-7-7-7-7-5-5-5-5--4-4-4-4-4----------------|
A|-5-5-5-5-3-3-3-3-5-5-5-5-3-3-3-3-5-5-5-5-3-3-3-3--2-2-2-2-2----------------|
E|---------------------------------------------------------------------------|
Verse
e|---------------------------------------------------------------------------|
B|---------------------------------------------------------------------------|
G|--------------4--------5--------7---------------4------5--------7----------|
D|-----5------4---4----5---5----7---7------5----4---4--5---5----7---7--------|
A|---5---5--2--------3--------5----------5---5-2------3-------5--------------|
E|-3-----------------------------------3-------------------------------------|
Chorus
e|---------------------------------------------------------------------------|
B|---------------------------------------------------------------------------|
G|----7-----7-----7--5-------------------------------------------------------|
D|-2--7--2--7--2--7--5-------------------------------------------------------|
A|-2--5--2--5--2--5--3-------------------------------------------------------|
E|-0-----0-----0-------------------------------------------------------------|
Bridge
e|---------------------------------------------------------------------------|
B|---------------------------------------------------------------------------|
G|---------------7-7-7-7-----------------------------------------------------|
D|-5-5-5-5-5-5-5-7-7-7-7-----------------------------------------------------|
A|-5-5-5-5-5-5-5-5-5-5-5-----------------------------------------------------|
E|-3-3-3-3-3-3-3-------------------------------------------------------------|

Fuente: tusacordes.com