a b c d e f g h i j k l m n o p q r s t u v w x y z 0-9

American Idiot

Green Day

			
E[-----------------------------------------------------------------
B[-----------------------------------------------------------------
G[-----------------------------------------------------------------
D[-------7-7-7-------7-0-------------7-7-7-------7-0---------------
A[7-7-7--5-5-5--5-5--5-0-7----7-7-7--5-5-5--5-5--5-0-7-------------
E[5-5-5---------3-3----0-5----5-5-5---------3-3----0-5-------------

chorus:D, A, Em, A


E[-----------------------------------------------------------------
B[-----------------------------------------------------------------
G[-----------------------------------------------------------------
D[-------7-7-7-------7-0-------------7-7-7-------7-0---------------
A[7-7-7--5-5-5--5-5--5-0-7----7-7-7--5-5-5--5-5--5-0-7-------------
E[5-5-5---------3-3----0-5----5-5-5---------3-3----0-5-------------

Fuente: Tusacordes