a b c d e f g h i j k l m n o p q r s t u v w x y z 0-9

American Idiot

Green Day

			
G#5  C#5  F#5  C#5 G#5 F#5
e|----------------------------------|
B|----------------------------------|
G|------6---------6-----------------|
D|-6----6----4----6---6---4---------|
A|-6----4----4----4---6---4---------|
E|-4---------2--------4---2---------|

   G#5  C#5  F#5  C#5 G#5 
e|------------------------0---------|
B|------------------------0---------|
G|------6---------6-------0---------|
D|-6----6----4----6---6-------------|
A|-6----4----4----4---6-------------|
E|-4---------2--------4-------------|

Verse:
                 G#5  C#5  F#5  C#5 G#5 F#5   
e|-------------------------------------------|
B|-------------------------------------------|
G|--------------------6---------6------------|
D|--drums------6----6----4----6---6---4----|
A|---------------6----4----4----4---6---4----|
E|---------------4---------2--------4---2----|

                 G#5  C#5  F#5  C#5 G#5    
e|--------------------------------------0-----|
B|--------------------------------------0-----|
G|--------------------6---------6-------0-----|
D|--drums------6----6----4----6---6---------|
A|---------------6----4----4----4---6---------|
E|---------------4---------2--------4---------|

                 G#5  C#5  F#5  C#5 G#5 F#5   
e|-------------------------------------------|
B|-------------------------------------------|
G|--------------------6---------6------------|
D|--drums------6----6----4----6---6---4----|
A|---------------6----4----4----4---6---4----|
E|---------------4---------2--------4---2----|


                 G#5  C#5  F#5  C#5 G#5 
e|-------------------------------------------|
B|-------------------------------------------|
G|--------------------6---------6------------|
D|--drums------6----6----4----6---6--------|
A|---------------6----4----4----4---6--12\---|
E|---------------4---------2--------4--------|

Chorus:
   C#5  G#5  D#5  G#5
e|----------------------------|
B|----------------------------|
G|-6---------8----------------|
D|-6----6----8----6-----------|
A|-4----6----6----6-----------|
E|------4---------4-----------|

   C#5  G#5  D#5  
e|--------------------------|
B|--------------------------|
G|-6---------8--------------|
D|-6----6----8--------------|
A|-4----6----6--------------|
E|------4-------------------|


Solo:

e|---------------------------------------------------------------|
B|---------------------------------------------------------------|
G|--10-10-10-10-10-10-10-10-8-6---8-8-8-8-8-8/10-8-6-5-----------|
D|---------------------------------------------------------------|
A|--8--8--8--8--8--8--8--8--6-4---6-6-6-6-6-6/8--6-4-3-----------|
E|---------------------------------------------------------------|

e|------------------------------6----8----6----------------------|
B|-------------------------9-----------------9v------------------|
G|--3-3-3-3-3-5-6-5-3---88---88---88---88--8---------------------|
D|---------------------------------------------------------------|
A|---------------------------------------------------------------|
E|---------------------------------------------------------------|

e|---------------------------------------------------------------|
B|---------------------------------------------------------------|
G|--10-10-10-10-10-10-10-10-8-6---8-8-8-8-8/10-8-6-5-------------|
D|---------------------------------------------------------------|
A|--8--8--8--8--8--8--8--8--6-4---6-6-6-6-6/8--6-4-3-------------|
E|---------------------------------------------------------------|

e|---------------------------------------------------------------|
B|---------------------------------------------------------------|
G|--3-3-3-3-3-5-6-5-3-8/13v--------------------------------------|
D|---------------------------------------------------------------|
A|---------------------------------------------------------------|
E|---------------------------------------------------------------|

End:

   G#5  C#5  F#5  C#5 G#5
e|-------------------------0--------| 
B|-------------------------0--------|
G|------6---------6--------0--------|
D|-6----6----4----6---6-------------|
A|-6----4----4----4---6-------------|
E|-4---------2--------4-------------|

   G#5  C#5  F#5  C#5 G#5 F#5
e|----------------------------------|
B|----------------------------------|
G|------6---------6-----------------|
D|-6----6----4----6---6---4---------|
A|-6----4----4----4---6---4---------|
E|-4---------2--------4---2---------|

   G#5  C#5  F#5  C#5 G#5 
e|------------------------0---------| 
B|------------------------0---------|
G|------6---------6-------0---------|
D|-6----6----4----6---6-------------|
A|-6----4----4----4---6-------------|
E|-4---------2--------4-------------|

   G#5  C#5  F#5  C#5 G#5 F#5
e|----------------------------------|
B|----------------------------------|
G|------6---------6-----------------|
D|-6----6----4----6---6---4---------|
A|-6----4----4----4---6---4---------|
E|-4---------2--------4---2---------|

   G#5  C#5  F#5  C#5 G#5
e|----------------------------------|
B|----------------------------------|
G|------6---------6-----------------|
D|-6----6----4----6---6-------------|
A|-6----4----4----4---6-------------|
E|-4---------2--------4-------------|

Fuente: Tusacordes