a b c d e f g h i j k l m n o p q r s t u v w x y z 0-9

American Idiot

Green Day

			
E|----------------------------||
B|----------------------------||
G|------666------6------------||
D|-666--666--44--6--6--4------||
A|-666--444--44--4--6--4------||
E|-444-------22-----4--2------||

E|----------------------------||
B|----------------------------||
G|------666------6------------||
D|-666--666--44--6--6--4------||
A|-666--444--44--4--6--4------||
E|-444-------22-----4--2------||


E|----------------------------||
B|----------------------------||
G|------666------6------------||
D|-666--666--44--6--6--4------||
A|-666--444--44--4--6--4------||
E|-444-------22-----4--2------||

E|----------------------------||
B|----------------------------||
G|------666------6------------||
D|-666--666--44--6--6--4------||
A|-666--444--44--4--6--4------||
E|-444-------22-----4--2------||

distorted (0:13-0:16)
E|----------------------------||
B|----------------------------||
G|------666------6------------||
D|-666--666--44--6--6--4------||
A|-666--444--44--4--6--4------||
E|-444-------22-----4--2------||


E|----------------------------||
B|----------------------------||
G|------666------6------------||
D|-666--666--44--6--6--4------||
A|-666--444--44--4--6--4------||
E|-444-------22-----4--2------||

E|----------------------------||
B|----------------------------||
G|------666------6------------|| 
D|-666--666--44--6--6--4------||
A|-666--444--44--4--6--4------||
E|-444-------22-----4--2------||

E|----------------------------||
B|----------------------------||
G|------666------6------------|| 
D|-666--666--44--6--6--4------||
A|-666--444--44--4--6--4------||
E|-444-------22-----4--2------||

E|------------------------------------------------------------------------||
B|------------------------------------------------------------------------||
G|-66666666------------88888888------------66666666------------88888888---||
D|-66666666--66666666--88888888--66666666--66666666--66666666--88888888---||
A|-44444444--66666666--66666666--66666666--44444444--66666666--66666666---||
E|-----------44444444------------44444444------------44444444-------------||

E|----------------------------||
B|----------------------------||
G|------666------6------------||
D|-666--666--44--6--6--4------||
A|-666--444--44--4--6--4------||
E|-444-------22-----4--2------||


E|----------------------------||
B|----------------------------||
G|------666------6------------||
D|-666--666--44--6--6--4------||
A|-666--444--44--4--6--4------||
E|-444-------22-----4--2------||

E|----------------------------||
B|----------------------------||
G|------666------6------------||(
D|-666--666--44--6--6--4------||
A|-666--444--44--4--6--4------||
E|-444-------22-----4--2------||

E|----------------------------||
B|----------------------------||
G|------666------6------------|| 
D|-666--666--44--6--6--4------||
A|-666--444--44--4--6--4------||
E|-444-------22-----4--2------||

E|----------------------------||
B|----------------------------||
G|------666------6------------|| 
D|-666--666--44--6--6--4------||
A|-666--444--44--4--6--4------||
E|-444-------22-----4--2------||


E|----------------------------||
B|----------------------------|| 
G|------666------6------------||
D|-666--666--44--6--6--4------||
A|-666--444--44--4--6--4------||
E|-444-------22-----4--2------||


E|------------------------------------------------------------------------||
B|------------------------------------------------------------------------||
G|-66666666------------88888888------------66666666------------88888888---||
D|-66666666--66666666--88888888--66666666--66666666--66666666--88888888---||
A|-44444444--66666666--66666666--66666666--44444444--66666666--66666666---||
E|-----------44444444------------44444444------------44444444-------------||


E|----------------------------||
B|----------------------------||
G|------666------6------------||
D|-666--666--44--6--6--4------||
A|-666--444--44--4--6--4------||
E|-444-------22-----4--2------||


E|----------------------------||
B|----------------------------||
G|------666------6------------||
D|-666--666--44--6--6--4------||
A|-666--444--44--4--6--4------||
E|-444-------22-----4--2------||


E|----------------------------||
B|----------------------------||
G|------666------6------------||
D|-666--666--44--6--6--4------||
A|-666--444--44--4--6--4------||
E|-444-------22-----4--2------||

E|----------------------------||
B|----------------------------||
G|------666------6------------||
D|-666--666--44--6--6--4------||
A|-666--444--44--4--6--4------||
E|-444-------22-----4--2------||


SOLO  (1:48-1:58)
E|------------------------------------------------------------------------||
B|------------------------------------------------------------------------||
G|---------------------------------------------888-101010-121212-13/15/13-||
D|---------------------------888-10-11-10-8-6-----------------------------||
A|-888888-6-4--6666--8-6-4-3----------------------------------------------||
E|------------------------------------------------------------------------||

(1:58-2:07)
E|----------------------------------------------------------------||
B|----------------------------------------------------------------||
G|----------------------------------------------8/13~-------------||
D|----------------------------888-10-11-10-8-6--------------------||
A|-888888-6-4--6666--8-6-4-3--------------------------------------||
E|----------------------------------------------------------------||



E|----------------------------||
B|----------------------------||
G|------666------6------------||
D|-666--666--44--6--6--4------||
A|-666--444--44--4--6--4------||
E|-444-------22-----4--2------||


E|----------------------------||
B|----------------------------||
G|------666------6------------||
D|-666--666--44--6--6--4------||
A|-666--444--44--4--6--4------||
E|-444-------22-----4--2------||

E|----------------------------||
B|----------------------------||
G|------666------6------------||
D|-666--666--44--6--6--4------||
A|-666--444--44--4--6--4------||
E|-444-------22-----4--2------||


E|----------------------------||
B|----------------------------||
G|------666------6------------||
D|-666--666--44--6--6--4------||
A|-666--444--44--4--6--4------||
E|-444-------22-----4--2------||




E|----------------------------||
B|----------------------------||
G|------666------6------------||
D|-666--666--44--6--6--4------||
A|-666--444--44--4--6--4------||
E|-444-------22-----4--2------||



E|------------------------------------------------------------------------||
B|------------------------------------------------------------------------||
G|-66666666------------88888888------------66666666------------88888888---||
D|-66666666--66666666--88888888--66666666--66666666--66666666--88888888---||
A|-44444444--66666666--66666666--66666666--44444444--66666666--66666666---||
E|-----------44444444------------44444444------------44444444-------------||

E|----------------------------||
B|----------------------------||
G|------666------6------------||
D|-666--666--44--6--6--4------||
A|-666--444--44--4--6--4------||
E|-444-------22-----4--2------||


E|----------------------------||
B|----------------------------||
G|------666------6------------||
D|-666--666--44--6--6--4------||
A|-666--444--44--4--6--4------||
E|-444-------22-----4--2------||


E|----------------------------||
B|----------------------------||
G|------666------6------------||
D|-666--666--44--6--6--4------||
A|-666--444--44--4--6--4------||
E|-444-------22-----4--2------||


E|----------------------------||
B|----------------------------||
G|------666------6------------||
D|-666--666--44--6--6--4------||
A|-666--444--44--4--6--4------||
E|-444-------22-----4--2------||



E|---------------------------||
B|---------------------------||
G|------666------6-----------||
D|-666--666--44--6--6--------||
A|-666--444--44--4--6--------||
E|-444-------22-----4--------||

Fuente: tusacordes.com