a b c d e f g h i j k l m n o p q r s t u v w x y z 0-9

American Idiot

Green Day

			
American Idiot


INTRO:G# C# F# C# G# F#

versos:tocar en final de cada verso
    G#  C#  F#
e|-------------------|
b|-------------------|
g|------555----5-----|
d|--555-555-44-5-5-4-|
a|--555-333-44-3-5-4-|
E|--333-----22---3-2-|

Don't wanna be an American Idiot   
Don' t want a nation that under new media
 And can you hear the sound of hysteria?  
The sublinal mindfuck America   


Refrão:2x
       D         A       E       A
e|---------------------------------------|
b|---------------------------------------|
g|--77777777----------9999999------------|
d|--77777777-77777777-9999999-7777777----|
a|--55555555-77777777-7777777-7777777----|
E|-----------55555555---------5555555----|

D
Welcome to a new kinf of tesio
A
All acrossthe alien natio
E                            A 
Everything isn't meant to be okay
D
Television dreams of tomorrow
A
We're not the ones who're meant to follow
E
Convincing them to wals you

G# C# F# C# G# F#

versos:tocar en cada verso
    G#  C#  F#
e|-------------------|
b|-------------------|
g|------555----5-----|
d|--555-555-44-5-5-4-|
a|--555-333-44-3-5-4-|
E|--333-----22---3-2-|
    
Well maybe I'm the faggot America  
I'm not a part of a redneck agenda  
Now everybody do the propaganda  
And sing along in the age of paranoia

Refrão:2x
       D         A       E       A
e|---------------------------------------|
b|---------------------------------------|
g|--77777777----------9999999------------|
d|--77777777-77777777-9999999-7777777----|
a|--55555555-77777777-7777777-7777777----|
E|-----------55555555---------5555555----|

D
Welcome to a new kind of tesion
A
All across the alien nation
E                           A
Everything isn't meant to be okay
D
Television sreams of tomorrow
A
We're not the ones who're meant to fallow
E
Convincing them to walk you


Base:D,A,E,A
Solo:

e|-----------------------------------------------------------------------------------------------------|
b|---10-10-10--10-10--10-8-6-5-------------------------------------------------------------------------|
g|-----------------------------8-8-8-10-8-6-5-------5-6-5----13-13-13-15-15-15-17-17-17-15-15-15-13-13-|
d|--------------------------------------------8-8-8-------8--13-13-13-13-13-13-13-13-13-13-13-13-13-13-|
a|-----------------------------------------------------------------------------------------------------|
E|-----------------------------------------------------------------------------------------------------|
 
e|--------------------------------------------------------------|
b|---10-10-10--10-10--10-8-6-5----------------------------------|
g|-----------------------------8-8-8-10-8-6-5-------5-6-5---0-9-|
d|--------------------------------------------8-8-8-------8-----|
a|--------------------------------------------------------------|
E|--------------------------------------------------------------|
 
Versos:tocar abafado
   G#  C#  F#
e|-------------------|
b|-------------------|
g|------555----5-----|
d|--555-555-44-5-5-4-|
a|--555-333-44-3-5-4-|
E|--333-----22---3-2-|

Don't wanna be an American Idiot    
One nation controlled by the media   
It's going out to idiot America

Refrão:2x
       D         A       E       A
e|---------------------------------------|
b|---------------------------------------|
g|--77777777----------9999999------------|
d|--77777777-77777777-9999999-7777777----|
a|--55555555-77777777-7777777-7777777----|
E|-----------55555555---------5555555----|

D
Welcome to a new kind of tesion
A
All across the alien a nation
E                           A
Everything isn't meant to be okay
D
Television dreams of tomorrow
A
We're not the ones who're meant to fallow
E
Convincing them to walk you

G# C# F# C# G# F#
toca até o final

Fuente: Lacuerda