a b c d e f g h i j k l m n o p q r s t u v w x y z 0-9

American Idiot

Green Day

			
INTRO
RIFF
    G5        C5      F5   C5 G5 F5
E ---------------------------------------|x2
B ---------------------------------------|
G ----------5--5--5--------5-------------|
D ----------3--3--3--------3-------------|
A -5--5--5-----------3--3-----5--3-------|
E -3--3--3-----------1--1-----3--1-------|

| SILENCIO | RIFF |x4 hace silencio mientras canta

        C5              G5                  D5
E ---------------------------------------------------|
B ---------------------------------------------------|
G ---------------------------------7-7-7-7-7-7-7-7---|
D -5-5-5-5-5-5-5-5-----------------5-5-5-5-5-5-5-5---|
A -3-3-3-3-3-3-3-3-5-5-5-5-5-5-5-5-------------------|
E -----------------3-3-3-3-3-3-3-3-------------------|
   D5         G5
E -----------------------|x2
B -----------------------|
G -----------------------|
D -7-------------------|
A -5-5-5-5-5-5-5-5-5---|
E -----3-3-3-3-3-3-3-3---|


SOLO

E ---------------------------------------------|
B ---------------------------------------------|
G -9-9-9-9-9-7-5--7-7-9-7-5-4-2-2-4-5-4-2------|
D ---------------------------------------------|
A ---------------------------------------------|
E ---------------------------------------------|

bueno es lo q se... espero q me la suban jaja
culauier duda a matix-krk@hotmail.com
BYE

Fuente: tusacordes.com