a b c d e f g h i j k l m n o p q r s t u v w x y z 0-9

American Idiot

Green Day

			
American idiot

intro
e|-----------------------------|
B|-----------------------------|
G|--------6-6-------6-6--------|
D|-6-6-6--6-6?-4-4--6-6--6-4---|x4
A|-6-6-6--4-4?-4-4--4-4--6-4---|
E|-4-4-4-------2-2-------4-2---|
escuchen la rola y chekeen las veces q se toca cada nota

verso:
e|-----------------------------|
B|-----------------------------|
G|--------6-6-------6-6--------|
D|-6-6-6--6-6?-4-4--6-6--6-4---|x4
A|-6-6-6--4-4?-4-4--4-4--6-4---|
E|-4-4-4-------2-2-------4-2---|
escuchen la rola para q vean en q momento entra la guitarra


coro
e|-----------------------------------------------|
B|-----------------------------------------------|
G|-6-6-6-6-------------------8-8-8-8-------------|
D|-6-6-6-6-?6-6-6-6--8-8-8-8-8-8-8-8-------------|
A|-4-4-4-4-?6-6-6-6--8-8-8-8-6-6-6-6-------------|
E|----------4-4-4-4--6-6-6-6---------------------|

después del coro tocan esto:
e|-----------------------------|
B|-----------------------------|
G|--------6-6-------6-6--------|
D|-6-6-6--6-6?-4-4--6-6--6-4---|x2
A|-6-6-6--4-4?-4-4--4-4--6-4---|
E|-4-4-4-------2-2-------4-2---|


verso:
e|-----------------------------|
B|-----------------------------|
G|--------6-6-------6-6--------|
D|-6-6-6--6-6?-4-4--6-6--6-4---|x4
A|-6-6-6--4-4?-4-4--4-4--6-4---|
E|-4-4-4-------2-2-------4-2---|


coro
e|-----------------------------------------------|
B|-----------------------------------------------|
G|-6-6-6-6-------------------8-8-8-8-------------|
D|-6-6-6-6-?6-6-6-6--8-8-8-8-8-8-8-8-------------|
A|-4-4-4-4-?6-6-6-6--8-8-8-8-6-6-6-6-------------|
E|----------4-4-4-4--6-6-6-6---------------------|


después del coro tocan esto:
e|-----------------------------|
B|-----------------------------|
G|--------6-6-------6-6--------|
D|-6-6-6--6-6?-4-4--6-6--6-4---|x4
A|-6-6-6--4-4?-4-4--4-4--6-4---|
E|-4-4-4-------2-2-------4-2---|



solo:

primera guitarra:







Segunda guitarra:

e|-----------------------------------------------|
B|-----------------------------------------------|
G|-6-6-6-6-------------------8-8-8-8-------------|
D|-6-6-6-6-?6-6-6-6--8-8-8-8-8-8-8-8-------------|
A|-4-4-4-4-?6-6-6-6--8-8-8-8-6-6-6-6-------------|
E|----------4-4-4-4--6-6-6-6---------------------|

luego tocan esto:

e|-----------------------------|
B|-----------------------------|
G|--------6-6-------6-6--------|
D|-6-6-6--6-6?-4-4--6-6--6-4---|x5
A|-6-6-6--4-4?-4-4--4-4--6-4---|
E|-4-4-4-------2-2-------4-2---|



ultimo coro

coro
e|-----------------------------------------------|
B|-----------------------------------------------|
G|-6-6-6-6-------------------8-8-8-8-------------|
D|-6-6-6-6-?6-6-6-6--8-8-8-8-8-8-8-8-------------|
A|-4-4-4-4-?6-6-6-6--8-8-8-8-6-6-6-6-------------|
E|----------4-4-4-4--6-6-6-6---------------------|


y ya para terminar tocan esto 5 veces
e|-----------------------------|
B|-----------------------------|
G|--------6-6-------6-6--------|
D|-6-6-6--6-6?-4-4--6-6--6-4---|x
A|-6-6-6--4-4?-4-4--4-4--6-4---|
E|-4-4-4-------2-2-------4-2---|



bueno espero q les guste mi tab, para mi esta bien!!
felicitaciones, reclamos, sugerencias, dudas etc.. escríbanme a tankian_28@hotmail.com

Fuente: tusacordes.com