a b c d e f g h i j k l m n o p q r s t u v w x y z 0-9

American Idiot

Green Day

G#
C#
F#
D#
			
 Intro: G# C# F# C# G# F# |======> [2x]
       G# C# F# C# G#    |





G# C# F# C# G#
              Don't wanna be an American Idiot.
G# C# F# C# G# F#
              Don't want a nation that under the new media.
G# C# F# C# G#
              And can you hear the sound of hysteria?
G# C# F# C# G# F#
              The subliminal mind fuck America.
G# C# F# C# G#




C#
Welcome to a new kind of tension.
G#
All across the alienation.
Eb                            G#
Everything isn't meant to be okay.
C#
Television dreams of tomorrow.
G#
We're not the ones who're meant to follow.
D#
For that's enought to argue.




G# C# F# C# G#
              Well maybe I'm the faggot America.
G# C# F# C# G# F#
              I'm not a part of a redneck agenda.
G# C# F# C# G#
              Now everybody do the propaganda.
G# C# F# C# G# F#
              And sing along in the age of paranoia.
G# C# F# C# G#




C#
Welcome to a new kind of tension.
G#
All across the alien nation.
Eb                            G#
Everything isn't meant to be okay.
C#
Television dreams of tomorrow.
G#
We're not the ones who're meant to follow.
D#
For that's enough to argue.

 G# C# F# C# G# 4X

 C# G# Eb G#

Solo :
e|---------------------------------------------------------------------8-
B|------------------------------------------------------9-------11
G|-10-10-10-8-6-8-8-8-10-8-6-5-3-3-3-3-5-6-5-3->8-10-10---10-10----10-10-
D|-X--X--X--X-X-X-X-X--X-X-X-X----------------------------------
A|-8--8--8--6-4-6-6-6--8-6-4-3----------------------------------
E|--------------------------------------------------------------

e|--------------------------------------------------------------
B|-------11----9------------------------------------------------
G|-10-10----10--------------------------------------------------
D|--------------------------------------------------------------
A|--------------------------------------------------------------
E|--------------------------------------------------------------

e|--------------------------------------------------------------
B|------------------------------------------------9-------------
G|-10-10-10-8-6-8-8-8-10-8-6-5-3-3-3-3-5-6-5-3->8---------------
D|-X--X--X--X-X-X-X-X--X-X-X-X----------------------------------
A|-8--8--8--6-4-6-6-6--8-6-4-3----------------------------------
E|--------------------------------------------------------------



G# C# F# C# G#
              Don't wanna be an American Idiot.
G# C# F# C# G# F#
              One nation controlled by the media.
G# C# F# C# G#
              Information age of hysteria.

              It's going out to Idiot America.



C#  
Welcome to a new kind of tension.
G#
All across the alien nation.
Eb                            G#
Everything isn't meant to be okay.
C#
Television dreams of tomorrow.
G#
We're not the ones who're meant to follow.
D#
For that's enough to argue.
G# C# F# C# G#
 

Fuente: Lacuerda