a b c d e f g h i j k l m n o p q r s t u v w x y z 0-9

American Idiot (solo)

Green Day

			
e|---------------------------------------------------------------------------|
B|---------------------------------------------------------------------------|
G|-10-10-10-10-10-10-10-8-6-8-8-8-8-8-8--10-8-6-5-----------5-6-5----8-------|
D|---------------------------------------------------8-8-8-8--------8--------|
A|---------------------------------------------------------------------------|
E|---------------------------------------------------------------------------|

e|---------------------------------------------------------------------------|
B|----10----11-13-13-11-9----------------------------------------------------|
G|-10----10------------------------------------------------------------------|
D|---------------------------------------------------------------------------|
A|---------------------------------------------------------------------------|
E|---------------------------------------------------------------------------|

e|---------------------------------------------------------------------------|
B|----------------------------------------------------------------------9----|
G|-10-10-10-10-10-10-10-8-6-8-8-8-8-8-8--10-8-6-5-----------5-6-5----8-------|
D|---------------------------------------------------8-8-8-8--------8--------|
A|---------------------------------------------------------------------------|
E|---------------------------------------------------------------------------|

Fuente: tusacordes.com