a b c d e f g h i j k l m n o p q r s t u v w x y z 0-9

American Idiot (solo)

Green Day

			
Bueno pues acá les dejo el solo de la canción
es lo único que faltaba pues lo damas de la 
canción ya lo sacaron los compas y pssss ojala
suene chido y que lo disfrute la raza.




E/-----------------------------------------------------
B/--6-6-6-6-6-6-6-6-6-4--4-4-4-4-4-4-6-4---------------
G/---------------------6----------------6-5-3-3-3-3-3--
D/-----------------------------------------------------
A/-----------------------------------------------------
E/-----------------------------------------------------

  ------------4--6--8--6--4--/
  ----------4--4--4--4--4----/
  --5-6-5-3------------------/
  ---------------------------/
  ---------------------------/
  ---------------------------/



E/-----------------------------------------------------
B/--6-6-6-6-6-6-6-6-6-4--4-4-4-4-4-4-6-4---------------
G/---------------------6----------------6-5-3-3-3-3-3--
D/-----------------------------------------------------
A/-----------------------------------------------------
E/-----------------------------------------------------

  ------------4--
  ----------4----
  --5-6-5-3------
  ---------------
  ---------------
  ---------------
          

Fuente: tusacordes.com