a b c d e f g h i j k l m n o p q r s t u v w x y z 0-9

409 In Your Coffeemaker

Green Day

			
Intro
e|---------------------------------------------------------------------------|
B|---------------------------------------------------------------------------|
G|-6-6-----------------------------------------------------------------------|
D|-6-6-5-5-6-----------------------------------------------------------------|
A|-4-4-5-5-6-----------------------------------------------------------------|
E|-----3-3-4-----------------------------------------------------------------|
Verse
e|---------------------------------------------------------------------------|
B|---------------------------------------------------------------------------|
G|---------------------------------------------------------------------------|
D|-6-6-6-6-4-4-4-4-6-6-6-6-4-4-4-4-------------------------------------------|
A|-6-6-6-6-4-4-4-4-6-6-6-6-4-4-4-4-------------------------------------------|
E|-4-4-4-4-2-2-2-2-4-4-4-4-2-2-2-2-------------------------------------------|
Chorus
e|---------------------------------------------------------------------------|
B|---------------------------------------------------------------------------|
G|-6-6-6-6-6---------------6-6-6-8-8-8---------------------------------------|
D|-6-6-6-6-6-6-6-6-6-6--x3-6-6-6-8-8-8---------------------------------------|
A|-4-4-4-4-4-6-6-6-6-6-----4-4-4-6-6-6---------------------------------------|
E|-----------4-4-4-4-4-------------------------------------------------------|

Fuente: tusacordes.com