a b c d e f g h i j k l m n o p q r s t u v w x y z 0-9

21 Guns

Green Day

			
INTRO:

G|------------
D|-0-----3----
A|----1-----3-
E|------------X2

Do you know what's worth fighting for,
When it's not worth dying for?
Does it take your breath away
And you feel yourself suffocating?
Does the pain weigh out the pride?
G|-------------------------------|
D|0--0-0-------------------------|
A|-------1--1-1----------3-3-3-3-|
E|--------------1--1-1-1---------|
And you look for a place to hide?
G|-------------------------------|
D|0--0-0-------------------------|
A|-------1--1-1----------3-3-3-3-|
E|--------------1--1-1-1---------|
Did someone break your heart inside?
G|-------------------------------|
D|0--0-0-------------------------|
A|-------1--1-1----------3-3-3-3-|
E|--------------1--1-1-1---------|
You're in ruins
G|-------------|
D|-------------|
A|1-1----------|
E|-------------|

CORO:
One, 21 guns Lay down your arms Give up the fight
G|--------------------------------------------------------------|
D|--------------------------------------------------------------|
A|-3------3-3--5-5--3-3-3-3--1-1-1-1---------3-3-3-3-3-3-3-3-3-3|
E|---1-1-----------------------------1-1-1-1--------------------|
One, 21 guns Throw up your arms into the sky,
G|-----------------------------------------------------------|
D|-----------------------------------------------------------|
A|-----3-3--5-5--3-3-3-3--1-1-1-1---------3-3-3-3-3-3-3-3-3-3|
E|1-1-----------------------------1-1-1-1--------------------|
You and I
G|-----------------------|
D|-----------------------|
A|1-1-1-1---------3------|
E|--------1-1-1-1--------|


When you're at the end of the road
G|-------------------------------|
D|0--0-0-------------------------|
A|-------1--1-1----------3-3-3-3-|
E|--------------1--1-1-1---------|
And you lost all sense of control
G|-------------------------------|
D|0--0-0-------------------------|
A|-------1--1-1----------3-3-3-3-|
E|--------------1--1-1-1---------|
And your thoughts have taken their toll
G|-------------------------------|
D|0--0-0-------------------------|
A|-------1--1-1----------3-3-3-3-|
E|--------------1--1-1-1---------|
When your mind breaks the spirit of your soul
G|-------------------------------|
D|-------------------------------|
A|1-1-1-1-1---------3-3-3-3------|
E|----------1-1-1-1--------------|
Your faith walks on broken glass
G|-------------------------------|
D|0--0-0-------------------------|
A|-------1--1-1----------3-3-3-3-|
E|--------------1--1-1-1---------|
And the hangover doesn't pass
G|-------------------------------|
D|0--0-0-------------------------|
A|-------1--1-1----------3-3-3-3-|
E|--------------1--1-1-1---------|
Nothing's ever built to last
G|-------------------------------|
D|0--0-0-------------------------|
A|-------1--1-1----------3-3-3-3-|
E|--------------1--1-1-1---------|
You're in ruins.
G|-------------|
D|-------------|
A|1-1----------|
E|-------------|

CORO:
One, 21 guns
Lay down your arms
Give up the fight
One, 21 guns
Throw up your arms into the sky,
You and I


Did you try to live on your own
G|--------------------------------|
D|--------------------------------|
A|5-5--1-1-------3-3-3-3----------|
E|----------1-1-------------------|
When you burned down the house and home?
G|--------------------------------|
D|--------------------------------|
A|5-5--1-1-----------0-0-0-0------|
E|----------1-1-1-1---------------|
Did you stand too close to the fire?
G|--------------------------------|
D|--------------------------------|
A|5-5--1-1-----------0-0-0-0------|
E|----------1-1-1-1---------------|
Like a liar looking for forgiveness from a stone
G|--------------------------------|
D|--------------------------------|
A|1-1-1-1-1-1-1-1-3-3-3-3-3-3-3-3-|
E|--------------------------------|

solo

G|------------------------------------------------|
D|------------------------------------------------|
A|-----3-3--5-5--3-3-1-1------3-3-3-3-------------|
E|-1-1--------------------1-1---------------------|x2

G|----------------|
D|----------------|
A|1-1-----3-3-----|
E|----1-1---------|


INTRO:
G|------------
D|-0-----3----
A|----1-----3-
E|------------X2

VERS:
When it's time to live and let die
And you can't get another try
Something inside this heart has died
You're in ruins.

CORO:
One, 21 guns
Lay down your arms
Give up the fight
One, 21 guns
Throw up your arms into the sky,
One, 21 guns Lay down your arms Give up the fight
One, 21 guns Throw up your arms into the sky,
You and I
 INTRO..

ESO FUE TODO...

Fuente: Tusacordes