a b c d e f g h i j k l m n o p q r s t u v w x y z 0-9

21 Guns

Green Day

Dm
F
C
			
Hola...las demas versiones estan bien salvo q tiienen un pequeño error en el coro..de esta manera es algo 
mas dificl de tocar pero suena de maravilla...intentelo y como dice un amigo:
Just do it!! 
--Verso 1--
Dm       Bb5                F        C
  C you know what's worth fighting for
Dm          Bb5        F     C
  When it's not worth dying for?
Dm        Bb5       F       C
  Does it take you breath away
        Bb5                 C
And you feel yourself suffocating?
Dm         Bb5          F       C
  Does the pain weight out the pride?
Dm        Bb5         F        C
  And you look for a place to hide?
Dm         Bb5             F       C
  Does someone break your heart inside?
          Bb5   C
You're in ruins

--Coro-- 
F5   F5/E Dm
One, 21   guns
C             Bb5
Lay down your arms
F5           C
Give up the fight
F5   F5/E Dm
One, 21   guns
C
Throw up your 
Bb5   F5         C
arms into the sky
        Bb5 F C
You and I

--Verso 2--
Dm            Bb5     F          C
  When you're at the end of the road
Dm        Bb5       F           C
  And you lost all sense of control
Dm         Bb5            F           C
  And your thoughts have taken their toll
          Bb5                             C
When your mind breaks the spirit of your soul
Dm     Bb5             F      C
  Your faith walks on broken glass
Dm        Bb5       F       C
  And the hangover doesn't pass
Dm          Bb5   F        C
  Nothing's ever built to last
          Bb5   C
You're in ruins

--Coro--
F5   F5/E Dm
One, 21   guns
C             Bb5
Lay down your arms
F5           C
Give up the fight
F5   F5/E Dm
One, 21   guns
C
Throw up your 
Bb5   F5         C
arms into the sky
        Bb5 F C
You and I

--Bridge?
e|------------------------------------------------------------|
B|------------------------------------------------------------|
G|--7-7--3-3--------5-5-5-5--7-7--3-3-----------2-2-2-2-------|
D|--7-7--3-3--3-3---5-5-5-5--7-7--3-3--3-3-3-3--2-2-2-2-------|
A|--5-5--1-1--3-3---3-3-3-3--5-5--1-1--3-3-3-3--0-0-0-0-------|
E|------------1-1----------------------1-1-1-1----------------|

e|------------------------------------------------------------|
B|------------------------------------------------------------|
G|--7-7--3-3---------------2-2-2-2--3-3-3-3-3-3-3-3--5-5-5-5-5|
D|--7-7--3-3--3-3-3-3------2-2-2-2--3-3-3-3-3-3-3-3--5-5-5-5-5|
A|--5-5--1-1--3-3-3-3------0-0-0-0--1-1-1-1-1-1-1-1--3-3-3-3-3|
E|------------1-1-1-1-----------------------------------------|


--Solo--
e----5----5-----------------------------------------|
B--6--6-8---6---6-----6-----3----------5-5-5-5-6-8--|
G-------------7---7-9---7-3---3-5-3-2---------------|  
D---------------------------------------------------| x2
A---------------------------------------------------|   
E---------------------------------------------------|
 
e|--------------------------------|
B|----3----------5-5-5-5-5-5-5-5--|
G|--3---3-5-3-2-------------------|
D|--------------------------------|
A|--------------------------------|
E|--------------------------------|  

--Verso 3--
Dm          Bb5      F            C
  When it's time to live and let die
Dm        Bb5         F      C
  And you can't get another try
Dm          Bb5          F         C
  Something inside this heart has died
          Bb5
You're in ruins

--Coro 2--
F5   F5/E Dm
One, 21   guns
C             Bb5
Lay down your arms
F5           C
Give up the fight
F5   F5/E Dm
One, 21   guns 
C
Throw up your 
Bb5   F5        C
arms into the sky
F5   F5/E Dm
One, 21  guns
C             Bb5
Lay down your arms
F5           C
Give up the fight
F5   F5/E Dm
One, 21   guns
C
Throw up your 
Bb5   F5         C
arms into the sky
        Bb5 F C
You and I.


Bb5      F5       F5/E     F
e|-1-|   e|-1-|   e|---|   e|---|
B|-1-|   B|-1-|   B|---|   B|-1-|
G|-3-|   G|-1-|   G|---|   G|-2-|
D|-3-|   D|-3-|   D|-3-|   D|-3-|
A|-1-|   A|-3-|   A|-3-|   A|---|
E|---|   E|-1-|   E|---|   E|---|

Fuente: Lacuerda