a b c d e f g h i j k l m n o p q r s t u v w x y z 0-9

21 Guns

Green Day

			
E---------------------------------------------------------------
B---6---------3---------10---------5--------------3-----3-------
G---------------------------------------------------------------
D-------------------------------------------3--3----------------
A---5---------1----------8---------3----------------------------
E---------------------------------------------------------------


E---------------------------------------------------------------
B--1--------------------3-----3--3--------1--------------3------
G-----3--2--0-----------------------2--3-----0------------------
D-----------------3--3-----------------------------3--3---------
A---------------------------------------------------------------
E---------------------------------------------------------------


E---------------------------------------------------------------
B---3--1--1-----------------------------------------------------
G------------3--2--0-----2--0--0-----------------2--2--0--------
D---------------------------------3-3--0--3---3-----------------
A---------------------------------------------------------------
E---------------------------------------------------------------


E---------------------------------------------------------------
B---------3-----3--1--1--------------------1-----3--3--------1--
G------------------------3--2--0-----------------------2--3-----
D---3--3-----------------------------3--3-----------------------
A---------------------------------------------------------------
E---------------------------------------------------------------


E---------------------------------------------------------------
B--------------3-----3--1--1------------------------------------
G--0--------------------------3--2--0-----2---0--0--------------
D--------3--3---------------------------------------5p3---------
A---------------------------------------------------------------
E---------------------------------------------------------------


E-------------------1-------------------------------------------
B----------------1--------1--------1p3---1----------------------
G----------2--3--------------2--------------3--2--0-------------
D----3--------------------------3-------------------------------
A---------------------------------------------------------------
E---------------------------------------------------------------


E---------------------------------------------------------------
B---------------------------3-----3-----1-----------------------
G---2-0--0---------------------------------3--2--0--------------
D-----------3---------3--3-----------------------------3--3-----
A---------------------------------------------------------------
E---------------------------------------------------------------


E---------------------------------------------------------------
B---3-----3--1--------1-------------3-----3--1--1---------------
G---------------2--3-----0-------------------------3--2--0------
D------------------------------3--------------------------------
A---------------------------------------------------------------
E---------------------------------------------------------------


E---------------------------------------------------------------
B---------------------------------------------3-----3--1--1-----
G---2--0--0-----------------2--2--0--------------------------3--
D------------3-3--0--3---3--------------3-----------------------
A---------------------------------------------------------------
E---------------------------------------------------------------


E-----------------------------------------------0--1------------
B-----------------3-----3--1--------1--------3----------3-------
G--2--0-----------------------2--3-----0------------------------
D-----------3--3------------------------------------------------
A---------------------------------------------------------------
E---------------------------------------------------------------


E----------------------------------------------1----------------
B--1----------------------------------------1-------1--------1p3
G-----3--2--0-----2-0--0--------------2--3-------------2--------
D-------------------------3------3------------------------3-----
A---------------------------------------------------------------
E---------------------------------------------------------------


E-------------------------------------1-------------------------
B---1------------------------------1-------1--------1p3---------
G------3--2--0---------------2--3-------------2-----------------
D-----------------------3------------------------3--------------
A---------------------------------------------------------------
E---------------------------------------------------------------


E---------------------------------------------------------------
B---1-----------------------------------------------------------
G------3--2--0---------2-0--0-----------------------------------
D------------------------------3--------------------------------
A---------------------------------------------------------------
E---------------------------------------------------------------


E------0--1---------------------------0--1---------------------
B---3-----------3----1-------------3----------3--3--1--1--1--1p2
G-----------------------3--2--0---------------------------------
D---------------------------------------------------------------
A---------------------------------------------------------------
E---------------------------------------------------------------


E------0--1-------------------------------------------1--1--0---
B---3----------3----1--1--1--1p2----2-2--3----3--1-3------------
G---------------------------------------------------------------
D---------------------------------------------------------------
A---------------------------------------------------------------
E---------------------------------------------------------------


E---------0--1--------------------------------------------------
B---3------------------6----------3----------10--------5--------
G---------------------------------------------------------------
D---------------------------------------------------------------
A----------------------5----------1-----------8--------3--------
E---------------------------------------------------------------


E---------------------------------------------------------------
B---------3-----3--1--1--------------------3----3--1--------1---
G------------------------3--2--0----------------------2--3-----0
D---3--3-----------------------------3--3-----------------------
A---------------------------------------------------------------
E---------------------------------------------------------------


E------0--1-----------------------------------------------------
B---3----------3--3--1------------------------------------------
G-----------------------3--2--0-----2-0--0----------------------
D-------------------------------------------3-------------------
A---------------------------------------------------------------
E---------------------------------------------------------------


E-------------------1-------------------------------------------
B----------------1-------1--------1p3----1----------------------
G----------2--3-------------2---------------3--2--0-------------
D---3--------------------------3--------------------------------
A---------------------------------------------------------------
E---------------------------------------------------------------


E-------------------1-------------------------------------------
B----------------1-------1--------1p3----1----------------------
G----------2--3-------------2---------------3--2--0-------------
D---3--------------------------3--------------------------------
A---------------------------------------------------------------
E---------------------------------------------------------------


E-------------------1-------------------------------------------
B----------------1-------1--------1p3----1----------------------
G----------2--3-------------2---------------3--2--0-------------
D---3--------------------------3--------------------------------
A---------------------------------------------------------------
E---------------------------------------------------------------


E-------------------1-------------------------------------------
B----------------1-------1--------1p3----1----------------------
G----------2--3-------------2---------------3--2--0-------------
D---3--------------------------3--------------------------------
A---------------------------------------------------------------
E---------------------------------------------------------------


E---------------------------------------------------------------
B---------------------------------------------------------------
G----2-0--0-----------------------------------------------------
D------------3--------------------------------------------------
A---------------------------------------------------------------
E---------------------------------------------------------------

Fuente: tusacordes.com