a b c d e f g h i j k l m n o p q r s t u v w x y z 0-9

21 Guns

Green Day

			
e|-----------------------------------------------------------------------
B|-----------------------------------------------------------------------
G|--6-6--6-6-6-----------------------------------------------------------
D|--6-6--6-6-6--6-6-6?-4-4-----------------------------------------------
A|--4-4--4-4-4--6-6-6--4-4-----------------------------------------------
E|--------------4-4-4--2-2-----------------------------------------------

Pre Chorus ?My Generation is zero??
e|-----------------------------------------------------------------------
B|-----------------------------------------------------------------------
G|---------------------11-11-11-11-11-11-11-11---------------------------
D|--8-8-8-8-8-8-8-8----11-11-11-11-11-11-11-11---------------------------
A|--8-8-8-8-8-8-8-8----9--9--9--9--9--9--9--9----------------------------
E|--6-6-6-6-6-6-6-6------------------------------------------------------

??I never made it as a working class hero?

e|-----------------------------------------------------------------------
B|-----------------------------------------------------------------------
G|--------------------11-11-11-11--13-13-13-13---------------------------
D|--8-8-8-8-8-8-8-8---11-11-11-11--13-13-13-13---------------------------
A|--8-8-8-8-8-8-8-8---9--9--9--9---11-11-11-11---------------------------
E|--6-6-6-6-6-6-6-6------------------------------------------------------

Chorus

e|-----------------------------------------------------------------------
B|-----------------------------------------------------------------------
G|--6-6------------------------------------------------------------------
D|--6-6--6-6--4-4-4-4-4-4------------------------------------------------
A|--4-4--6-6--4-4-4-4-4-4------------------------------------------------
E|-------4-4--2-2-2-2-2-2------------------------------------------------

(2:20 (End of Chorus)): x5

e|-----------------------------------------------------------------------
B|-----------------------------------------------------------------------
G|-----------------------------------------------------------------------
D|--6--------------------------------------------------------------------
A|--6------let ring----------------------------------------------------
E|--4--------------------------------------------------------------------

(at the end of ?We are the cause of, the cause of the dead?

e|-----------------------------------------------------------------------
B|-----------------------------------------------------------------------
G|-6---------------------------------------------------------------------
D|-6-6-------------------------------------------------------------------
A|-4-6-------------------------------------------------------------------
E|---4-------------------------------------------------------------------







After ?1969??
e|-----------------------------------------------------------------------
B|-----------------------------------------------------------------------
G|-6-6-6-6-6-6-6-6-6-6-6-6-----------------------------------------------
D|-6-6-6-6-6-6-6-6-6-6-6-6-4---------------------------------------------
A|-4-4-4-4-4-4-4-4-4-4-4-4-4---------------------------------------------
E|-------------------------2---------------------------------------------


e|-----------------------------------------------------------------------
B|-----------------------------------------------------------------------
G|-6-6-6-6-6--6-----6----------------------------------------------------
D|-6-6-6-6-6--6-4-6-6----------------------------------------------------
A|-4-4-4-4-4--4-4-6-4----------------------------------------------------
E|--------------2-4------------------------------------------------------

?Born on the 4th of July??

e|-----------------------------------------------------------------------
B|-----------------------------------------------------------------------
G|-6-6-6-6-6--.-.-.-.-.-.-.----------------------------------------------
D|-6-6-6-6-6--6-6-6-6-6-6-6----------------------------------------------
A|-4-4-4-4-4--6-6-6-6-6-6-6----------------------------------------------
E|------------4-4-4-4-4-4-4----------------------------------------------

Fuente: tusacordes.com