a b c d e f g h i j k l m n o p q r s t u v w x y z 0-9

21 Guns

Green Day

			
21 Guns - Green Day


Intro
e-------------------------| 
B--6---3---10---5---------| 
G-------------------------| 
D-------------------------| 
A--5---1---8----3---------| 
E-------------------------| 


Verse
Dm       A#                F        C
  Do you know what's worth fighting for,
Dm          A#        F     C
  When it's not worth dying for?
Dm        A#        F      C
  Does it take your breath away
         A#                C
And you feel yourself suffocating?

Dm         A#         F        C
  Does the pain weigh out the pride?
Dm        A#          F        C
  And you look for a place to hide?
Dm        A#             F      C
  Did someone break your heart inside?
 A#
You're in ruins


Chorus
e--------------------------------------------0-1-3~-|
B---------------------------------------------------|       
G--5------------77--5555--3333------5555------------|       
D--5----33--22--77--5555--3333-3333-5555------------| X2  
A--3----33--33--55--3333--1111-3333-3333------------|       
E-------11--00-----------------1111-----------------|   

e---------------|
B---------------|
G-3333------5~--|
D-3333-3333-5~--|
A-1111-3333-3~--|
E------1111-----|





  


Bridge
e--------------------|-----------------------|   
B--------------------|-----------------------| 
G--77--33------5555--|--77--33---------------|   
D--77--33--33--5555--|--77--33--/3333--7777--| X2
A--55--11--33--3333--|--55--11--/3333--5555--|   
E----------11--------|----------/1111--5555--| 
  

e-----------------------|
B-----------------------|
G-33333333-55555555-----|
D-33333333-55555555-----|
A-11111111-33333333-----|
E-----------------------|


Solo
e---------------5---------------------------------------| 
B-------10-6-8~---6~----6-------6-----------------------| 
G---------------------7---7-7s9~--7---7-----------------| 
D----10-----------------------------8---8-8s10-7--------| 
A-/8---------------------------------------------8------| 
E-------------------------------------------------------| 

e-------------------------------------------------------| 
B-----------6-6s8~--------------------------------------| 
G--/9~-9~-9---------------------------------------------| 
D-------------------------------------------------------| 
A-------------------------------------------------------| 
E-------------------------------------------------------| 

e---------------5---------------------------------------| 
B-------10-6-8~---6~----6-------6-----------------------| 
G---------------------7---7-7s9~--7---7-----------------| 
D----10-----------------------------8---8-8s10-7--------| 
A-/8---------------------------------------------8------| 
E-------------------------------------------------------| 

e------------10b12r10-----------------------------------| 
B----------6--------------------------------------------| 
G-/9~-9~-9--------------7-------------9~9~9~9~9~9~9~9~--|
D---------------------8---8---/10-7---------------------| 
A---------------------------8-------8~------------------| 
E-------------------------------------------------------| 









Lead part for final chorus
e-------------------------------------------------------|
B--6---6---8---8---6---6---5---5------3-----1-----------|
G----5---5---5---5---5---5---5---5--3---3-----2---------| 
D-----------------------------------------3-----3-------| 
A-------------------------------------------------------| 
E-------------------------------------------------------| 

e-----------------| 
B-/5~-5~-5-6-8----| 
G-----------------| 
D-----------------| X2
A-----------------| 
E-----------------| 

End with
e-------------------------| 
B----3-----1-----/5~------| 
G--3---3-----2------------| 
D--------3-----3----------| 
A-------------------------| 
E-------------------------|

Fuente: Lacuerda