a b c d e f g h i j k l m n o p q r s t u v w x y z 0-9

21 Guns

Green Day

			
Green Day - 21 Guns

e|-1-----5--0--1-----5--0-|
B|----3-----------3-------|
G|------------------------|
D|-0-----3-----0-----3----|
A|----1-----3-----1-----3-|
E|------------------------|

e|------------------------|
B|-----1/3-3/1-1----------|
G|---------------3-2-0----|
D|-3-3--------------------|
A|------------------------|
E|------------------------|

e|------------------------|
B|-----1/3-3/1-------1----|
G|---------------2-3---0--|
D|-3-3--------------------|
A|------------------------|
E|------------------------|

e|------------------------|
B|-----1/3-3--1-----------|
G|---------------3-2-0----|
D|-3-3--------------------|
A|------------------------|
E|------------------------|

e|-----------------------------------|
B|-----------------------------------|
G|-2-0---------------2-0/2-0---------|
D|-----3/5/3-3-0-3-0-----------------|
A|-----------------------------------|
E|-----------------------------------|X2

e|-1-----5--0-|	--1-
B|----3-------|	----
G|------------|	----
D|-0-----3----|	--0-
A|----1-----3-|	----
E|------------|x3	----

e|------------------------|
B|------------------------|
G|-3.--5-x-----------7-7--|
D|-3.--5-x-3-3--2-2--7-7--|
A|-1.--3-x-3-3--3-3--5-5--|
E|---------1-1--0-0-------|

e|-----------------------------------------|
B|-----------------------------------------|
G|-5-5-5-5-3-3-3-3---------5-5-5-5-5-5-5-5-|
D|-5-5-5-5-3-3-3-3-3-3-3-3-5-5-5-5-5-5-5-5-|
A|-3-3-3-3-1-1-1-1-3-3-3-3-3-3-3-3-3-3-3-3-|
E|-----------------1-1-1-1-----------------|

e|------------------|
B|------------------|
G|-------------7-7--|
D|---3-3--2-2--7-7--|
A|---3-3--3-3--5-5--|
E|---1-1--0-0-------|

e|-----------------------------------------|
B|-----------------------------------------|
G|-5-5-5-5-3-3-3-3---------5-5-5-5-5-5-5-5-|
D|-5-5-5-5-3-3-3-3-3-3-3-3-5-5-5-5-5-5-5-5-|
A|-3-3-3-3-1-1-1-1-3-3-3-3-3-3-3-3-3-3-3-3-|
E|-----------------1-1-1-1-----------------|




e|-----------------------------------|
B|-----------------------------------|
G|-3-3-3-3---------5.----------------|
D|-3-3-3-3-3-3-3-3-5.----------------|
A|-1-1-1-1-3-3-3-3-3.----------------|
E|---------1-1-1-1-------------------|

e|-1-----5--0-|	---0-
B|----3-------|	-3---
G|------------|	-----
D|-0-----3----|	---3-
A|----1-----3-|	-1---
E|------------|x3	-----

e|-1-------------------------|
B|--------1/3-3/1-1----------|
G|------------------3-2-0----|
D|-0--3-3--------------------|
A|---------------------------|
E|---------------------------|

e|-1-------------------------|
B|--------1/3-3---------1----|
G|------------------2-3---0--|
D|-0--3-3--------------------|
A|---------------------------|
E|---------------------------|

e|-1---------------------------------|
B|----3-5-6---3--1-------------------|
G|------------------3-2-0------------|
D|-0-----------------------2-0-------|
A|-----------------------------3/5/3-|
E|-----------------------------------|

e|--------------1-----------------|
B|------------1----1-----1/3------|
G|-3.-5-----2--------2------------|
D|-3.-5-3-2------------3----------|
A|-1.-3---------------------------|
E|--------------------------------|

e|------------------------------1------------|
B|-1----------------8---------1----1-----1/3-|
G|---3-2-0/2/0-9-10---------2--------2-------|
D|---------------------3--2------------3-----|
A|-------------------------------------------|
E|-------------------------------------------|

e|-----------------------------------|
B|-1-----------------8---------------|
G|---3-2-0/2/0--9-10----2-0----------|
D|--------------------------3/5/3----|
A|-----------------------------------|
E|-----------------------------------|

e|-----------------------------------|
B|-----------------------------------|
G|-3-3-3---------5-5-5-5-5-5-5-5-----|
D|-3-3-3-3-3-3-3-5-5-5-5-5-5-5-5-----|
A|-1-1-1-3-3-3-3-3-3-3-3-3-3-3-3-----|
E|-------1-1-1-1---------------------|
DISTORCION
e|-----------------------------------|
B|-6---6---6---6-6--6---6---5---5----|
G|---7---7---7--------5---5---5---5--|
D|-----------------------------------|
A|-----------------------------------|
E|-----------------------------------|


e|-----------------------------------|
B|-6---6---6---6-6--6---6---5-5-5-5--|
G|---7---7---7--------5---5----------|
D|-----------------------------------|
A|-----------------------------------|
E|-----------------------------------|x2

e|-----------------------------------|
B|-----------------------------------|
G|-3-3-3-3-3-3-3-5-5-5-5-5-5-5-5-----|
D|-3-3-3-3-3-3-3-5-5-5-5-5-5-5-5-----|
A|-1-1-1-1-1-1-1-3-3-3-3-3-3-3-3-----|
E|-----------------------------------|
SOLO
e|---------------------------------------|
B|--------10----8?8/10-------6---5-5/6---|
G|-----------10--------10--7---7-------7-|
D|-----10--------------------------------|
A|-6/8-----------------------------------|
E|---------------------------------------|

e|-----------------------------------|
B|--------------5-5--5-6-8-----------|
G|---7-------------------------------|
D|-8---8-10-7------------------------|
A|------------8----------------------|
E|-----------------------------------|

e|---------------------------------------|
B|--------10----8?8/10-------6---5-5/6---|
G|-----------10--------10--7---7-------7-|
D|-----10--------------------------------|
A|-6/8-----------------------------------|
E|---------------------------------------|

e|-----------------------10----------|
B|--------------5-5--5-6-11----------|
G|---7-------------------------------|
D|-8---8-10-7------------------------|
A|------------8----------------------|
E|-----------------------------------|

e|-----------------------------------|
B|---------------5-5-5-5-------------|
G|---7-----5-------------------------|
D|-8---8-----7-----------------------|
A|-------8-----8---------------------|
E|-----------------------------------|

e|-1-----5--0--1-----5--0-|
B|----3-----------3-------|
G|------------------------|
D|-0-----3-----0-----3----|
A|----1-----3-----1-----3-|
E|------------------------|

e|---------------------------|
B|--------1/3-3/1-1----------|
G|------------------3-2-0----|
D|----3-3--------------------|
A|---------------------------|
E|---------------------------|

e|---------------------------|
B|--------1/3-3-1-------1----|
G|------------------2-3---0--|
D|----3-3--------------------|
A|---------------------------|
E|---------------------------|



e|-1-----------------------------------|
B|-----3-5-6--3-3--1-------------------|
G|-------------------3-2-0--2-0--------|
D|-0-----------------------------3/5/3-|
A|-------------------------------------|
E|-------------------------------------|

e|------------------|
B|------------------|
G|-------------7-7--|
D|---3-3--2-2--7-7--|
A|---3-3--3-3--5-5--|
E|---1-1--0-0-------|

e|-----------------------------------------|
B|-----------------------------------------|
G|-5-5-5-5-3-3-3-3---------5-5-5-5-5-5-5-5-|
D|-5-5-5-5-3-3-3-3-3-3-3-3-5-5-5-5-5-5-5-5-|
A|-3-3-3-3-1-1-1-1-3-3-3-3-3-3-3-3-3-3-3-3-|
E|-----------------1-1-1-1-----------------|x2

e|-------------------------|
B|-6---6---8---8---6---6---|
G|---5---5---5---5---7---7-|
D|-------------------------|
A|-------------------------|
E|-------------------------|

e|-----------------------------------|
B|-5---5-----3-----1-----5.-5.-5-6-8-|
G|---5---5-3---3-----2---------------|
D|---------------3-----3-------------|
A|-----------------------------------|
E|-----------------------------------|

e|-------------------------|
B|-6---6---8---8---6---6---|
G|---5---5---5---5---7---7-|
D|-------------------------|
A|-------------------------|
E|-------------------------|

e|-----------------------------------|
B|-5---5-----3-----1-----5.-5.-5-6-8-|
G|---5---5-3---3-----2---------------|
D|---------------3-----3-------------|
A|-----------------------------------|
E|-----------------------------------|

e|---------------------------|
B|---3-----1-----5.----------|
G|-3---3-----2---------------|
D|-------3-----3-------------|
A|---------------------------|
E|---------------------------|

Fuente: tusacordes.com