a b c d e f g h i j k l m n o p q r s t u v w x y z 0-9

21 Guns

Green Day

			
Intro:
e|---------------------------------------------------------------------------|
B|---6---3--10---5-----------------------------------------------------------|
G|---------------------------------------------------------------------------|
D|---------------------------------------------------------------------------|            x2
A|---5---1---8---3-----------------------------------------------------------|
E|---------------------------------------------------------------------------|


Verso

e|---0---1---1-------0---1---1-------0---1---1-------1-----------------------|
B|---3---1---1---1---3---1---1---1---3---1---1---1---1--x8-1--x8-------------|
G|---2---3---2---0---2---3---2---0---2---3---2---0---3-----0-----------------|
D|---0---3---3---2---0---3---3---2---0---3---3---2---3-----2-----------------|
A|-------1---3---3-------1---3---3-------1---3---3---1-----3-----------------|
E|-----------1---------------1---------------1-------------------------------|

e|---0---1---1-------0---1---1-------0---1---1-------1~----------------------|
B|---3---1---1---1---3---1---1---1---3---1---1---1---1~----------------------|
G|---2---3---2---0---2---3---2---0---2---3---2---0---3~---------5------------|
D|---0---3---3---2---0---3---3---2---0---3---3---2---3~---------5------------|
A|-------1---3---3-------1---3---3-------1---3---3---1~---------3------------|
E|-----------1---------------1---------------1-------------------------------|

Coros Ambas guitarras

e|---------------------------------------------------------------------------|
B|---------------------------------------------------------------x2----------|
G|--------------7-7---5-5-5-5--3-3-3-3---------5-5-5-5-5-5-5-5---------------|
D|--3-3---2-2---7-7---5-5-5-5--3-3-3-3-3-3-3-3-5-5-5-5-5-5-5-5---------------|
A|--3-3---3-3---5-5---3-3-3-3--1-1-1-1-3-3-3-3-3-3-3-3-3-3-3-3---------------|
E|--1-1---0-0--------------------------1-1-1-1-------------------------------|

e|---------------------------------------------------------------------------|
B|---------------------------------------------------------------------------|
G|--3-3-3-3----------5~------------------------------------------------------|
D|--3-3-3-3-3-3-3-3--5~------------------------------------------------------|
A|--1-1-1-1-3-3-3-3--3~------------------------------------------------------|
E|----------1-1-1-1----------------------------------------------------------|

guitarra 1 Verso

e|---0---1---1-------0---1---1-------0---1---1-------1-----------------------|
B|---3---1---1---1---3---1---1---1---3---1---1---1---1--x8-1--x8-------------|
G|---2---3---2---0---2---3---2---0---2---3---2---0---3-----0-----------------|
D|---0---3---3---2---0---3---3---2---0---3---3---2---3-----2-----------------|
A|-------1---3---3-------1---3---3-------1---3---3---1-----3-----------------|
E|-----------1---------------1---------------1-------------------------------|

e|---0---1---1-------0---1---1-------0---1---1-------1~----------------------|
B|---3---1---1---1---3---1---1---1---3---1---1---1---1~----------------------|
G|---2---3---2---0---2---3---2---0---2---3---2---0---3~---------5------------|
D|---0---3---3---2---0---3---3---2---0---3---3---2---3~---------5------------|
A|-------1---3---3-------1---3---3-------1---3---3---1~---------3------------|
E|-----------1---------------1---------------1-------------------------------|

Coros Ambas guitarras

e|---------------------------------------------------------------------------|
B|---------------------------------------------------------------x2----------|
G|--------------7-7---5-5-5-5--3-3-3-3---------5-5-5-5-5-5-5-5---------------|
D|--3-3---2-2---7-7---5-5-5-5--3-3-3-3-3-3-3-3-5-5-5-5-5-5-5-5---------------|
A|--3-3---3-3---5-5---3-3-3-3--1-1-1-1-3-3-3-3-3-3-3-3-3-3-3-3---------------|
E|--1-1---0-0--------------------------1-1-1-1-------------------------------|

e|---------------------------------------------------------------------------|
B|---------------------------------------------------------------------------|
G|--3-3-3-3----------5-5-5-5-5-5-5-5-----------------------------------------|
D|--3-3-3-3-3-3-3-3--5-5-5-5-5-5-5-5-----------------------------------------|
A|--1-1-1-1-3-3-3-3--3-3-3-3-3-3-3-3-----------------------------------------|
E|----------1-1-1-1----------------------------------------------------------|

Bridge Guitarra 1

e|---------------------------------------------------------------------------|
B|---------------------------------------------------------------------------|
G|--7-7--3-3--------5-5-5-5--7-7--3-3-----------2-2-2-2----------------------|
D|--7-7--3-3--3-3---5-5-5-5--7-7--3-3--3-3-3-3--2-2-2-2----------------------|
A|--5-5--1-1--3-3---3-3-3-3--5-5--1-1--3-3-3-3--0-0-0-0----------------------|
E|------------1-1----------------------1-1-1-1-------------------------------|

e|---------------------------------------------------------------------------|
B|---------------------------------------------------------------------------|
G|--7-7--3-3---------------2-2-2-2--3-3-3-3-3-3-3-3--5-5-5-5-5-5-5-5---------|
D|--7-7--3-3--3-3-3-3------2-2-2-2--3-3-3-3-3-3-3-3--5-5-5-5-5-5-5-5---------|
A|--5-5--1-1--3-3-3-3------0-0-0-0--1-1-1-1-1-1-1-1--3-3-3-3-3-3-3-3---------|
E|------------1-1-1-1--------------------------------------------------------|

Bridge Guitarra 2

e|---------------------------------------------------------------------------|
B|--6--6--6--6-6--6--6--5-5-5-5--6--6--6--6-6--6--6--5-5-5-5-----------------|
G|---7--7--7-------5--5-----------7--7--7-------5--5-------------------------|
D|---------------------------------------------------------------------------|
A|---------------------------------------------------------------------------|
E|---------------------------------------------------------------------------|

e|---------------------------------------------------------------------------|
B|--6--6--6--6-6--6--6--5-5-5-5----------------------------------------------|
G|---7--7--7-------5--5----------3-3-3-3-3-3-3-3--5-5-5-5-5-5-5-5------------|
D|-------------------------------3-3-3-3-3-3-3-3--5-5-5-5-5-5-5-5------------|
A|-------------------------------1-1-1-1-1-1-1-1--3-3-3-3-3-3-3-3------------|
E|---------------------------------------------------------------------------|

solo guitarra 1

e|---------------------------------------------------------------------------|
B|---------------------------------------------------------------------------|
G|--------------------7-7-7-7--5-5-5-5--3-3-3-3---------5-5-5-5-5-5-5-5------|
D|--3-3-3-3--2-2-2-2--7-7-7-7--5-5-5-5--3-3-3-3-3-3-3-3-5-5-5-5-5-5-5-5------|
A|--3-3-3-3--3-3-3-3--5-5-5-5--3-3-3-3--1-1-1-1-3-3-3-3-3-3-3-3-3-3-3-3------|
E|--1-1-1-1--0-0-0-0----------------------------1-1-1-1----------------------|

e|---------------------------------------------------------------------------|
B|---------------------------------------------------------------------------|
G|--------------------7-7-7-7--5-5-5-5--3-3-3-3-----------5-5-5-5-5-5-5-5----|
D|--3-3-3-3--2-2-2-2--7-7-7-7--5-5-5-5--3-3-3-3--3-3-3-3--5-5-5-5-5-5-5-5----|
A|--3-3-3-3--3-3-3-3--5-5-5-5--3-3-3-3--1-1-1-1--3-3-3-3--3-3-3-3-3-3-3-3----|
E|--1-1-1-1--0-0-0-0-----------------------------1-1-1-1---------------------|

e|---------------------------------------------------------------------------|
B|---------------------------------------------------------------------------|
G|--3-3-3-3-----------2-2-2-2-2-2-2-2----------------------------------------|
D|--3-3-3-3--3-3-3-3--2-2-2-2-2-2-2-2----------------------------------------|
A|--1-1-1-1--3-3-3-3--0-0-0-0-0-0-0-0----------------------------------------|
E|-----------1-1-1-1---------------------------------------------------------|

Solo Guitarra 2

e|---------------------------------------------------------------------------|
B|------10-6-8-8h10p6--6---5-5h6p3--3----1------5--5--5-6-8------------------|
G|----5---------------7--7---------3--3----2---------------------------------|
D|--3----------------------------------------3-------------------------------|
A|---------------------------------------------------------------------------|
E|---------------------------------------------------------------------------|

e|---------------------------------------------------------------------------|
B|------10-6-8-8h10p6--6---5-5h6p3--3----1------5--5--5-6--16^---------------|
G|----5---------------7--7---------3--3----2---------------16^---------------|
D|--3----------------------------------------3-------------------------------|
A|---------------------------------------------------------------------------|
E|---------------------------------------------------------------------------|

e|---------------------------------------------------------------------------|
B|------10-6-8-8h10p6--6---5-5h6p3--3----1------5--5--5-6--16^---------------|
G|----5---------------7--7---------3--3----2---------------16^---------------|
D|--3----------------------------------------3-------------------------------|
A|---------------------------------------------------------------------------|
E|---------------------------------------------------------------------------|



e|---------------------------------------------------------------------------|
B|----2-----1-------5-5-5-5--------------------------------------------------|
G|--3---3-----2--------------------------------------------------------------|
D|--------3-----3------------------------------------------------------------|
A|---------------------------------------------------------------------------|
E|---------------------------------------------------------------------------|

Guitarra 2 toca esto con la guitarra 1

e|---------------------------------------------------------------------------|
B|---6---3--10---5---6---3--10---5-------------------------------------------|
G|---------------------------------------------------------------------------|
D|---------------------------------------------------------------------------|
A|---5---1---8---3---5---1---8---3-------------------------------------------|
E|---------------------------------------------------------------------------|

Verso Final Guitarra 1

e|---0---1---1-------0---1---1-------0---1---1-------1~----------------------|
B|---3---1---1---1---3---1---1---1---3---1---1---1---1~----------------------|
G|---2---3---2---0---2---3---2---0---2---3---2---0---3~----------------------|
D|---0---3---3---2---0---3---3---2---0---3---3---2---3~----------------------|
A|-------1---3---3-------1---3---3-------1---3---3---1~----------------------|
E|-----------1---------------1---------------1-------------------------------|

Coro Final Guitarra 1

e|---------------------------------------------------------------------------|
B|---------------------------------------------------------------x4----------|
G|--------------7-7---5-5-5-5--3-3-3-3---------5-5-5-5-5-5-5-5---------------|
D|--3-3---2-2---7-7---5-5-5-5--3-3-3-3-3-3-3-3-5-5-5-5-5-5-5-5---------------|
A|--3-3---3-3---5-5---3-3-3-3--1-1-1-1-3-3-3-3-3-3-3-3-3-3-3-3---------------|
E|--1-1---0-0--------------------------1-1-1-1-------------------------------|

e|---------------------------------------------------------------------------|
B|---------------------------------------------------------------------------|
G|--3-3-3-3----------5~------------------------------------------------------|
D|--3-3-3-3-3-3-3-3--5~------------------------------------------------------|
A|--1-1-1-1-3-3-3-3--3~------------------------------------------------------|
E|----------1-1-1-1----------------------------------------------------------|

Coro Final Guitarra 2

e|---------------------------------------------------------------------------|
B|---6--6--8--8--6--6--5--5------2-----1------5--5--5-6-8--------------------|
G|----5--5--5--5--7--7--5--5---3---3-----2-----------------------------------|
D|-----------------------------------3-----3---------------------------------|
A|---------------------------------------------------------------------------|
E|---------------------------------------------------------------------------|

e|---------------------------------------------------------------------------|
B|---6--6--8--8--6--6--5--5------2-----1------5--5--5-6-8--------------------|
G|----5--5--5--5--7--7--5--5---3---3-----2-----------------------------------|
D|-----------------------------------3-----3---------------------------------|
A|---------------------------------------------------------------------------|
E|---------------------------------------------------------------------------|

e|---------------------------------------------------------------------------|
B|---------------------------------------------------------------------------|
G|--3-3-3-3----------5~------------------------------------------------------|
D|--3-3-3-3-3-3-3-3--5~------------------------------------------------------|
A|--1-1-1-1-3-3-3-3--3~------------------------------------------------------|
E|----------1-1-1-1----------------------------------------------------------|

Fuente: tusacordes.com