a b c d e f g h i j k l m n o p q r s t u v w x y z 0-9

1.000 Hours

Green Day

			
Intro/Verse
e|---------------------------------------------------------------------------|
B|---------------------------------------------------------------------------|
G|---------------------------------------------------------------------------|
D|-7-7-7-7-7-7-7-7-----------------------------------------------------------|
A|-7-7-7-7-7-7-7-7-----------------------------------------------------------|
E|-5-5-5-5-5-5-5-5-----------------------------------------------------------|
Chorus
e|---------------------------------------------------------------------------|
B|---------------------------------------------------------------------------|
G|---------------------------------------------------------------------------|
D|-4-4-4-4-4-5-5-5-5-5----x3-------------------------------------------------|
A|-4-4-4-4-4-5-5-5-5-5-------------------------------------------------------|
E|-2-2-2-2-2-3-3-3-3-3-------------------------------------------------------|

Fuente: tusacordes.com