a b c d e f g h i j k l m n o p q r s t u v w x y z 0-9

ˇviva La Gloria!

Green Day

			
parte 1:

e|-----------------8--------------------------|
b|66-8-9-8-66-6-8-9-9-8-66-8-9-8-6-----8-6----|
g|--------------------------------888-5-------|
d|--------------------------------------------|
a|--------------------------------------------|
E|--------------------------------------------|


parte 2:

e|-----------------8--------------888-111111/13131313-|
b|66-8-9-8-66-6-8-9-9-8-66-8-9-8-9--------------------|
g|----------------------------------------------------|
d|----------------------------------------------------|
a|----------------------------------------------------|
E|----------------------------------------------------|

Fuente: Tusacordes