a b c d e f g h i j k l m n o p q r s t u v w x y z 0-9

¡viva La Gloria!

Green Day

C
Em
F
G
			
Queda mejor con capo en 4º traste pero es lo mismo[si no tienen uno pongan un lápiz atado con una gomita al traste correspondiente]



Intro: C - Em - F - C

C          Em
  Hey Gloria
        F                     G         C
Are you standing close to the edge?
               Em              F
Lookout to the setting sun
                  G          C
The brink of your vision
        Em
Eternal youth is
  F                G         C
A landscape of the lie
                 Em               F
The cracks of my skin can prove
                  G          C
As the years will testify
                     Em           F
Say your prayers and light a fire
                       G     C
We're going to start a war
               Em            F
Your slogans a gun for hire
             G               C
It's what we waited for
         Em
Hey Gloria,
        F                G      C
This is why we're on the edge
                 Em
The fight of our lives been drawn to
     F       C
This undying love.

Chorus:
|------------------------------------------------------------------------------------------------
|------------------------------------------------------------------------------------------------
|-5-5-5-5-5-5-5-5--------------------------------------------------------------------------------
|-5-5-5-5-5-5-5-5-------2-2-2-2-2-2-2-2------7-7-7-7-7-7-7-7-----3-3-3-3-3-3-3-3-3-3-3-3-3-3-3-3-
|-3-3-3-3-3-3-3-3-------2-2-2-2-2-2-2-2------7-7-7-7-7-7-7-7-----3-3-3-3-3-3-3-3-3-3-3-3-3-3-3-3-
|-----------------------0-0-0-0-0-0-0-0------5-5-5-5-5-5-5-5-----1-1-1-1-1-1-1-1-1-1-1-1-1-1-1-1-

------------------------------------------------------------------------|
------------------------------------------------------------------------|
--5-5-------------------------------------------------------------------|
--5-5--5-5--7-7-7---------3-3-3-3-3-3-3-3-------5-5-5-5-5-5-5-5---------|
--3-3--5-5--7-7-7---------3-3-3-3-3-3-3-3-------5-5-5-5-5-5-5-5---------|
-------3-3--5-5-5---------1-1-1-1-1-1-1-1-------3-3-3-3-3-3-3-3---------|x2


Verse:
|------------------------------------------------------------|
|------------------------------------------------------------|
|--5-5-x-5-5-x-5-5-x-5-5-5-----------------------------------|
|--5-5-x-5-5-x-5-5-x-5-5-5----2-2-x-2-2-x-2-2-x-2-2-2-2-2----|
|--3-3-x-3-3-x-3-3-x-3-3-3----2-2-x-2-2-x-2-2-x-2-2-2-2-2----|
|-----------------------------0-0-x-0-0-x-0-0-x-0-0-0-0-0----|

---------------------------------------------------------|
---------------------------------------------------------|
---------------------------------------------------------|
--3-3-x-3-3-x-3-3-x-3-3-3----5-5-x-5-5-x-5-5-x-5-5-5-----|
--3-3-x-3-3-x-3-3-x-3-3-3----5-5-x-5-5-x-5-5-x-5-5-5-----|
--1-1-x-1-1-x-1-1-x-1-1-1----3-3-x-3-3-x-3-3-x-3-3-3-----|   x2


----------------------|
----------------------|
----------------------|
---2-2-3--3-5-5-5-----|
---2-2-3--3-5-5-5-----|
---0-0-1--1-3-3-3-----|



Chorus x2


Ending:
|-------------------------------|
|--------------------------7----|
|--3--5-----3--5-----3--5--5----|
|--3--5-----3--5-----3--5--5----|
|--1--3-----1--3-----1--3-------|                        x2
So Gloria.....


|---------|
|---------|
|--5------|
|--5------|
|--3------|
|---------|        x4

Fuente: Tusacordes