a b c d e f g h i j k l m n o p q r s t u v w x y z 0-9

ˇviva La Gloria!

Green Day

			
viva la gloria! little girl

VERSO 0:23 esta en realidad es la parte del piano asi que si usas electrica hace esta parte sin distorcion
e|----------------|
B|----------------|
G|----------------|
D|----------------|
A|----3-1---------|
E|--------4-3-----|

e|----------------------------------------------------|
B|-------9----9----9----9----9----9----9----9---------|
G|-------10---10---10---10---10---10---10---10--------|
D|-------10---10---10---10---10---10---10---10--------|
A|-----8---------8---------8---------8----------------|
E|----------8---------8---------8---------8-----------|

Little girl, little girl why are you crying?...
e|---------------------------------------------------------------------------|
B|-----9----9----9----9------------------------------------9----9----9----9--|
G|-----10---10---10---10---6---6---6---6---5---5---5---5---10---10---10---10-|
D|-----10---10---10---10---6---6---6---6---5---5---5---5---10---10---10---10-|
A|---8---------8---------4-------4-------3-------3-------8---------8---------|
E|--------8---------8--------4-------4-------3-------3--------8---------8----|

e|---------------------------------------------------------------------------|
B|-----9----9----9----9------------------------------------9----9----9----9--|
G|-----10---10---10---10---6---6---6---6---5---5---5---5---10---10---10---10-|
D|-----10---10---10---10---6---6---6---6---5---5---5---5---10---10---10---10-|
A|---8---------8---------4-------4-------3-------3-------8---------8---------|
E|--------8---------8--------4-------4-------3-------3--------8---------8----|


CORO0:49  AKA PONE DISTORCION 
e|-----------------------------------------------------------------|
B|----9-9-9-9-9-9-9-9----------------------------33333333----------|
G|----1010101010101010--66666666--5555-----------33333333----------|
D|----1010101010101010--66666666--5555-----------33333333----------|
A|----8-8-8-8-8-8-8-8---44444444--3333--3-1------33333333----------|
E|------------------------------------------4-3--11111111----------|

e|---------------------------------------------------------|
B|----9-9-9-9-9-9-9-9--------------------------------------|
G|----1010101010101010--66666666--5555---------------------|
D|----1010101010101010--66666666--5555---------------------|
A|----8-8-8-8-8-8-8-8---44444444--3333--3-1----------------|
E|------------------------------------------4-3------------|


VERSO 2 1:10
e|----------------------------------------------------|
B|-------9----9----9----9----9----9----9----9---------|
G|-------10---10---10---10---10---10---10---10--------|
D|-------10---10---10---10---10---10---10---10--------|
A|-----8---------8---------8---------8----------------|
E|----------8---------8---------8---------8-----------|

Little girl, little girl your life is calling...
e|---------------------------------------------------------------------------|
B|-----9---9-----9----------------------------------------9----9----9----9---|
G|-----10--10----10------6---6---6-6-----5---5---5---5---10---10---10---10---|
D|-----10--10----10------6---6---6-6-----5---5---5---5---10---10---10---10---|
A|-----8---8-----8-------4---4---4-4---3-------3-------8---------8-----------|
E|-----------------------------------------3-------3--------8---------8------|

e|---------------------------------------------------------------------------|
B|-----9----9----9----9------------------------------------9----9----9----9--|
G|-----10---10---10---10---6---6---6---6---5---5---5---5---10---10---10---10-|
D|-----10---10---10---10---6---6---6---6---5---5---5---5---10---10---10---10-|
A|---8---------8---------4-------4-------3-------3-------8---------8---------|
E|--------8---------8--------4-------4-------3-------3--------8---------8----|

e|---------------------------------------------------------------------------|
B|-----9----9----9----9------------------------------------9----9----9----9--|
G|-----10---10---10---10---6---6---6---6---5---5---5---5---10---10---10---10-|
D|-----10---10---10---10---6---6---6---6---5---5---5---5---10---10---10---10-|
A|---8---------8---------4-------4-------3-------3-------8---------8---------|
E|--------8---------8--------4-------4-------3-------3--------8---------8----|

e|---------------------------------------------------------------------------|
B|-----9---9-----9----------------------------------------9----9----9----9---|
G|-----10--10----10------6---6---6-6-----5---5---5---5---10---10---10---10---|
D|-----10--10----10------6---6---6-6-----5---5---5---5---10---10---10---10---|
A|-----8---8-----8-------4---4---4-4---3-------3-------8---------8-----------|
E|-----------------------------------------3-------3--------8---------8------|


CORO 1:55

PREVIA AL SOLO 2:20
e|---------------------------------------------------------------------------|
B|---------------------------------------------------------------------------|
G|-----66666---------66666---------66666---------5555555555------------------|
D|-----66666--66666--66666--66666--66666--66666--5555555555------------------|
A|-----44444--66666--44444--66666--44444--66666--3333333333------------------|
E|------------44444---------44444---------44444------------------------------|


BASE DEL SOLO 2:40 
e|------------------------------------------------------------------|
B|------------------------------------------------------------------|
G|---1010101010101010--88888888--7777--------8888--5555-------------|
D|---1010101010101010--88888888--7777--8888--8888--5555-------------| X4
A|---9-9-9-9-9-9-9-9---66666666--5555--8888--6666--3333-------------|
E|-------------------------------------6666-------------------------|


SOLO 2:40 
e|------------------------------------------------------------------------|
B|------------------------------13----------------------------------------|
G|-----12-13~-12----------12-13----12----------12-13~-12---------------12-|
D|--15------------15~--15-------------15~--15------------15--13-13--10----|X3
A|------------------------------------------------------------------------|
E|------------------------------------------------------------------------|

e|-----------------------------------------------------------|
B|------------------------------13---------------------------|
G|-----12-13~-12----------12-13----12----------12-13~-12-----|
D|--15------------15~--15-------------15~--15------------15--|
A|-----------------------------------------------------------|
E|-----------------------------------------------------------|

e|-----------------------------|
B|-----------------------------|
G|--12/17-17--21-21-22~--------|
D|-----------------------------|
A|-----------------------------|
E|-----------------------------|


CORO 3:20

FINAL
e|-----------------|
B|-----------------|
G|-----------------|
D|--------------3--|
A|----3-1-------3--|
E|--------4-3---1--|

Fuente: tusacordes.com