a b c d e f g h i j k l m n o p q r s t u v w x y z 0-9

Feel Good Inc. (intro)

Gorillaz

			
De esta canción solo me se el principio, pero todos los que encontré aquí estaban mal, tienen dos maneras de tocarla en guitarra:

e---------------------
b---------------------
g---------------------
D---------------------
A---------------------
E--0--0-2-3--8-7------

e---------------------
b---------------------
g---------------------
D---------------------
A---------------------
E--5--5-8-7--3-0------

O si les parece difícil también pueden con:

e---------------------
b---------------------
g---------------------
D---------------------
A------------3-2------
E--0--0-2-3-----------

e---------------------
b---------------------
g---------------------
D---------------------
A--0--0-3-2-----------
E------------3-0-------

Fuente: Tusacordes