a b c d e f g h i j k l m n o p q r s t u v w x y z 0-9

Dulce Amor

Gondwana

			
Trompetas:

e|-----------|----------------------|
B|-----------|----------------------|
G|---4-7-7---|------4-5-5-4-5-4-----|
D|--5-----8--|--5-7------------7-5--|
A|-----------|----------------------|
E|-----------|----------------------|  x2

 SOL    RE    LAm       DO
Pienso en ti siento lo bien que me haces
SOL       RE           LAm      DO
como una flor que nace dentro de mi

SOL     RE  LAm          DO
Puedo ver que el tiempo corre aprisa
SOL        RE           LAm      DO
pero al ver tu sonrisa todo va bien

DO          SOL          RE
Mas yo veo que al final sólo un latido habrá
LAm              DO            SOL
y en tu alma así brillará este amor
RE          LAm  DO
uouuou dulce amor
    SOL   - RE    LAm
uouuou dulce amor

   -TROMPETAS-

SOL      RE    LAm     DO
Creo en ti y adoro tu belleza
SOL        RE             LAm       DO
siento la inmensa fuerza de amarte asi
SOL    RE     LAm            DO
Resistire.....a la gente que nos separa
SOL        RE             LAm       DO
el verbo es JAH y mi dice yo soy en ti

DO          SOL          RE
Mas yo veo que al final sólo un latido habrá
LAm              DO            SOL
y en tu alma así brillará este amor
RE          LAm  DO
uouuou dulce amor
    SOL     RE    LAm
uouuou dulce amor


TROMPETAS 2

e|-------------------------------|
B|---------------------5-5-------|
G|--7-4---7-5-4-5---------7-4-5--|
D|---------------7-7>5-----------|
A|-------------------------------|
E|-------------------------------| x2


SOL RE          LAm  DO
uouuou dulce amor
    SOL     RE    LAm
uouuou dulce amor




Espero q les guste...Fuente: Tus acordes