a b c d e f g h i j k l m n o p q r s t u v w x y z 0-9

Estudio De Velocidad

Francisco Tarrega

E
G
B
			
Estudio De Velocidad                   


                                              F.Tarrega
Guitar 1




      S  S S S S S S S    S  S S S S  S S S  
E||---7p-4-----4-5-7-9-|--9p-7---0----------|
B||--------5-7---------|-------9---2p-0-----|
G||*-------------------|----------------1---|
D||*-------------------|------------------2-|
A||--------------------|--------------------|
E||---0----------------|--------------------|


  S  S S  S  S S  S  S     S   S  S  S S  S S  S  
---------------9-11-12-|--12p-11-11p-9-9p-7-7p-5-|
-------9-10-12---------|-------------------------|
--9-11-----------------|-------------------------|
-----------------------|-------------------------|
-----------------------|-------------------------|
-----------------------|-------------------------|


  S  S S S S  S S S    S  S S S S  S S S  
--4h-7-4---2h-5-2---|--0h-4-0------------|
---------5--------4-|---------0-2h-5-2---|
--------------------|------------------2-|
--------------------|--------------------|
--------------------|--------------------|
--------------------|--------------------|


  S  S S S S  S S S    S S S S S S S S  
--------------------|------------------|
--------------------|--------------4-5-|
--1h-4-1------------|----------4-6-----|
---------2-4h-7-4---|----4-6-7---------|
------------------6-|--7---------------|
--------------------|------------------|


  S S S S S S S S    S S S S S S  S  S  
------------4-5-7-|------4-5-7-9-11-12-|
------4-5-7-------|--5-7---------------|
--4-6-------------|--------------------|
------------------|--------------------|
------------------|--------------------|
------------------|--------------------|


   S   S  S  S S  S S S    S  S S S S  S S S  
--12p-11-11p-8-5h-8-5---|--------------------|
----------------------7-|--4h-7-4------------|
------------------------|---------5-2h-5-2---|
------------------------|------------------4-|
------------------------|--------------------|
------------------------|--------------------|


  S  S S S S S S S    S S S S S S S S  
-------------------|----------------2-|
-------------------|----------2-4-5---|
-------------------|----1-2-4---------|
--1h-4-1-------1-2-|--4---------------|
---------3-2-4-----|------------------|
-------------------|------------------|


  S  S S S S  S S S    E  E  E  E     
--4h-7-4---2h-5-2---|--------0------||
---------5--------4-|--4--4--0------||
--------------------|-----2--1-----*||
--------------------|-----4--2-----*||
--------------------|-----2---------||
--------------------|-----------0---||


   S  S S S S  S S  S    S  S S S S  S S  S  
---4p-0---0-4p-0-7p-5-|--5p-4-4-------------|
--------2-------------|---------7-7p-5-5p-4-|
*---------------------|---------------------|
*---------------------|---------------------|
----------------------|---------------------|
----------------------|---------------------|


  S S S  S  S   S  S S    S   S S  S S   S S S  
----4-9-12-12p-11-11-9-|--8h-11-8--------------|
--5--------------------|----------10-7h-10-7---|
-----------------------|---------------------8-|
-----------------------|-----------------------|
-----------------------|-----------------------|
-----------------------|-----------------------|


  S  S S S S S S S    S S S S S S S S  
-------------------|------------------|
-------------------|--------4-5-6-7-8-|
--5h-8-5---------4-|--5-6-7-----------|
---------7-6-7-8---|------------------|
-------------------|------------------|
-------------------|------------------|


  S S S S S S S S    S S S S Q     
--4---------------|----4-4-4-4----|
--------4-5-----5-|--4------------|
------5-------6---|---------------|
----6-------6-----|---------------|
------------------|---------------|
------------------|---------------|


  S  S S S S  S S  S    S  S S S S  S S  S  
--4p-0---0-4p-0-7p-5-|--5p-4-4-------------|
-------2-------------|---------7-7p-5-5p-4-|
---------------------|---------------------|
---------------------|---------------------|
---------------------|---------------------|
---------------------|---------------------|


  S S S   S  S   S  S  S    S   S S S S  S  S S  
----4-9h-12-12p-11-11p-9-|--8h-11-8---8h-9------|
--5----------------------|----------9------10-8-|
-------------------------|----------------------|
-------------------------|----------------------|
-------------------------|----------------------|
-------------------------|----------------------|


  S  S  S S S  S  S S    S  S S S S  S S S  
----------------------|--------------------|
--9-----------------8-|--9------9-8------8-|
----------8-9-10-11---|-------8--------9---|
----10-11-------------|----10-------11-----|
----------------------|--------------------|
----------------------|--------------------|


  S  S S S S  S S S    S   S S S Q     
--------------------|-----------------|
--9------9-8------8-|--9h-10-9-8-9----|
-------8--------9---|-----------------|
----10-------11-----|-----------------|
--------------------|-----------------|
--------------------|-----------------|


  S  S S  S S S S   S     S  S S  S S  S S  S  
----------------7h-10-|--10p-9-9p-7-7p-5-5p-4-|
------------6-9-------|-----------------------|
-------4h-7-----------|-----------------------|
--3h-6----------------|-----------------------|
----------------------|-----------------------|
----------------------|-----------------------|


  S  S S  S E  E     S  S S  S S S S  S  
--4p-2-5p-4-2-----|----------------5h-8-|
------------------|------------4-7------|
------------------|-------2h-5----------|
---------------4--|--1h-4---------------|
------------------|---------------------|
------------------|---------------------|


  S  S S  S S  S S  S    S  S S  S S S S S  
--8p-7-7p-5-5p-3-3p-2-|--2p-0-3p-2-0-------|
----------------------|--------------0-----|
----------------------|----------------0---|
----------------------|------------------2-|
----------------------|--------------------|
----------------------|--------------------|


  S S S S S S S S    S  S S S S S S S  
--0---0-2-0---0-2-|--3p-0-----0---0-2-|
----4-------4-----|-------1-----4-----|
------------------|---------2---------|
------------------|-------------------|
------------------|-------------------|
------------------|-------------------|


  S S S S S S S S    E  E  Q       S  S S S S S S S  
--3---0-2-3-4-5-6-|--7----------|--7p-4-----4-5-7-9-|
----4-------------|-------------|-------5-7---------|
------------------|-----4-------|-------------------|
------------------|-------------|-------------------|
------------------|-------------|-------------------|
------------------|--------7----|-------------------|


  S  S S S S  S S S    S  S S  S  S S  S  S  
--9p-7---0----------|---------------9-11-12-|
-------9---2p-0-----|-------9-10-12---------|
----------------1---|--9-11-----------------|
------------------2-|-----------------------|
--------------------|-----------------------|
--------------------|-----------------------|


   S   S  S  S S  S S  S    S  S S S S  S S S  
--12p-11-11p-9-9p-7-7p-5-|--4h-7-4---2h-5-2---|
-------------------------|---------5--------4-|
-------------------------|--------------------|
-------------------------|--------------------|
-------------------------|--------------------|
-------------------------|--------------------|


  S  S S S S  S S S    S  S S S S  S S S  
--0h-4-0------------|--------------------|
---------0-2h-5-2---|--------------------|
------------------2-|--1h-4-1------------|
--------------------|---------2-4h-7-4---|
--------------------|------------------6-|
--------------------|--------------------|


  S S S S S S S S    S S S S S S S S  
------------------|------------4-5-7-|
--------------4-5-|------4-5-7-------|
----------4-6-----|--4-6-------------|
----4-6-7---------|------------------|
--7---------------|------------------|
------------------|------------------|


  S S S S S S  S  S     S  S  S  S S S S S  
------4-5-7-9-11-12-|--------11--------9---|
--5-7---------------|-----10----10---9---9-|
--------------------|--11----------9-------|
--------------------|----------------------|
--------------------|----------------------|
--------------------|----------------------|


  S S S S S S S S    S S S S S S S S  
------7-------4---|------5-------1---|
----7---7---5---5-|----5---5---2---2-|
--8-------7-------|--6-------4-------|
------------------|------------------|
------------------|------------------|
------------------|------------------|


  S S S S S S S S    S S S S S S S S  
------2-----------|------------------|
----2---2-----4---|------5-------4---|
--2---------4---4-|----4---4---4---4-|
----------7-------|--6-------7-------|
------------------|------------------|
------------------|------------------|


  S S S S S S S S    Q    Q       H          
------------------|------------|-----------||
------5-------4---|--5----4----|--5--------||
----4---4---4---4-|--4----2----|--4--------||
--6-------7-------|--6----4----|--6--------||
------------------|------------|-----------||
------------------|------------|-----------||




Duration Legend
---------------
W - whole
H - half
Q - quarter
E - 8th
S - 16th
T - 32nd
X - 64th
. - note dotted
|-n-|  - n-tuplets


Tablature Legend
----------------
L - tied note
x - dead note
G - grace note
[n] - ghost note
> - accentuded note
NH - natural harmonic
AH - artificial harmonic
TH - tapped harmonic
SH - semi harmonic
PH - pitch harmonic
h - hammer on
p - pull off
B - bend
br - bendRelease
pb - preBend
pbr - preBendRelease
brb - bendReleaseBend
\n/ - tremolo bar dip
\n - tremolo bar dive
-/n - tremolo bar Release up
/n\ - tremolo bar inverted dip
/n - tremolo bar return
-\n - tremolo bar Release down
S - shift slide
s - legato slide
/ -  slide into from below or out of upwards
\ -  slide into from above or out of downwards
~ - vibrato
W - wide vibrato
tr - trill
TP - tremolo picking
T - tapping
S - slap
P - pop
< - fade in
^ - brush up
v - brush down

Fuente: Tusacordes