a b c d e f g h i j k l m n o p q r s t u v w x y z 0-9

Como Te Extraño

Fernando Delgadillo

			
fernando delgadillo - como te extraño carta a francia
version en vivo

chords
    G  Am  D  Em  F#/G  A  C/G  F  C#/  C#/D  B/C  A/G
e|--3---0--2---0----3---0---3---1---0-----0----0----0------|
B|--3---1--3---0----3---2---3---1---0-----3----3----3------|
G|--0---2--2---0----x---2---0---2---0-----2----0----0------|
D|--0---2--0---2----x---2---2---3---2-----x----x----x------|
A|--2---0--0---2----x---0---3---3---4-----3----2----0------|
E|--3---0--0---0----2---0---0---1---x-----x----x----x------|




intro
e|------------------------------------------------------------------2--------|
B|-----------------0-2-3-2-0--------------1----------0------------2---2------|
G|---------------2-----------2-------------------------0--------0-------0----|
D|--------0--------------------------0h2----2------2-----2-------------------|
A|----0h2---2-0----------------0h2-3-------------2---------------------------|
E|--3------------------------------------------0--------------2------------3-|


e|------------------------------------------------------------------2--------|
B|-----------------0-2-3-2-0--------------1----------0------------2---2------|
G|---------------2-----------2-------------------------0--------0-------0----|
D|--------0--------------------------0h2----2------2-----2-------------------|
A|----0h2---2-0----------------0h2-3-------------2---------------------------|
E|--3------------------------------------------0--------------2------------3-|

     G             A             C             D
e|---3--3--3-3-----5--5--5-5-----3--3--3-3-----5--5--5-5----------|
B|---3--3--3-3-----5--5--5-5-----5--5--5-5-----7--7--7-7----------|
G|---4--4--4-4-----4--4--4-4-----5--5--5-5-----7--7--7-7----------|
D|---5--5--5-5-----7--7--7-7-----5--5--5-5-----7--7--7-7----------|
A|---5--5--5-5-----7--7--7-7-----3--3--3-3-----5--5--5-5----------|
E|---3--3--3-3-----5--5--5-5-----3--3--3-3-----5--5--5-5----------|

     G             A             C             D             Em/G   F#/G
e|---3--3--3-3-----5--5--5-5-----3--3--3-3-----5--5--5-5-----3--3---3--3-3--|
B|---3--3--3-3-----5--5--5-5-----5--5--5-5-----7--7--7-7-----3--3---3--3-3--|
G|---4--4--4-4-----4--4--4-4-----5--5--5-5-----7--7--7-7-----0--0---0--0-0--|
D|---5--5--5-5-----7--7--7-7-----5--5--5-5-----7--7--7-7-----2------0--0-0--|
A|---5--5--5-5-----7--7--7-7-----3--3--3-3-----5--5--5-5-----2------0--0-0--|
E|---3--3--3-3-----5--5--5-5-----3--3--3-3-----5--5--5-5-----0------2--2-2--|





G                    Am
Desde el sitio donde siempre estoy pensando en ti
C			Em  F#/G
con mi eterna obstinacion
G                 Am
y anotando lo que siento que nos pasa aqui
C		     D
aunque no sea lo mejor

           Em           A                         C
como te extraño y como tengo miedo de perder los pasos
         D            F#/G        Em
de extraviar en algun lado las promesas y los sueños
      A	                         C                         D   F#/G
Cual sera el mejor camino, todos dicen, este si te va a llevar


G                   Am
Cada vez son muchos mas los que se acercan
    C                           D            F#/G
la gente siempre aplaude y temo tanto darme cuenta 
        Em                        A 
que tan solo condeciendan, con mi modo de mirar 
       C                          D            F#/G
sin saber a ciencia cierta si comparten lo que digo
          G                      A                            F#/G
si en verdad estan conmigo si conceden la importancia y el valor
                        C
que les concedo yo tambien

        Em            A                             C
Hoy necesito, toda la noche para contar lo que eh escrito 
       D             F#/G           Em                    A
acerca de los que comercian con la musica sencilla y reciclada
                  C                        D          F#/G
y que nunca dice nada, sera que no tienen nada que decir
        G                   A                        F#/G
como quisiera ver que el artista  esta buscando la manera
             Em                           A
de hablar de todo lo que se a vuelto importante 
                       C
y aun asi nunca es bastante
                     D            F#/G            G
aun nos falta y vaya si nos falta tanto a que cantar

     G             A             C             D
e|---3--3--3-3-----5--5--5-5-----3--3--3-3-----5--5--5-5----------|
B|---3--3--3-3-----5--5--5-5-----5--5--5-5-----7--7--7-7----------|
G|---4--4--4-4-----4--4--4-4-----5--5--5-5-----7--7--7-7----------|
D|---5--5--5-5-----7--7--7-7-----5--5--5-5-----7--7--7-7----------|
A|---5--5--5-5-----7--7--7-7-----3--3--3-3-----5--5--5-5----------|
E|---3--3--3-3-----5--5--5-5-----3--3--3-3-----5--5--5-5----------|

     G             A             C             D             Em/G   F#/G
e|---3--3--3-3-----5--5--5-5-----3--3--3-3-----5--5--5-5-----3--3---3--3-3--|
B|---3--3--3-3-----5--5--5-5-----5--5--5-5-----7--7--7-7-----3--3---3--3-3--|
G|---4--4--4-4-----4--4--4-4-----5--5--5-5-----7--7--7-7-----0--0---0--0-0--|
D|---5--5--5-5-----7--7--7-7-----5--5--5-5-----7--7--7-7-----2------0--0-0--|
A|---5--5--5-5-----7--7--7-7-----3--3--3-3-----5--5--5-5-----2------0--0-0--|
E|---3--3--3-3-----5--5--5-5-----3--3--3-3-----5--5--5-5-----0------2--2-2--|


G                Am
En el mundo solo miro dos extremos hoy
C                   Em   F#/G
y tu tan lejos de aqui
G                    Am
la nostalgia se me ira con el verano 
C                 D
cuando vayas a venir

           Em           A                         C
como te extraño y como tengo miedo de perder los pasos
         D            F#/G        Em
de extraviar en algun lado mis promesas y mis sueños
        A                     C                          D
cual sera el camino, estoy seguro que dirias que tome aquel
       F#/G            G  F  C G       G C/G
el que me lleve mas lejos

G                    Am
No eh sabido, decir todo lo que pienso en ti, 
C                      Em
ni eh sabido hablar de amor
F                  C                                G
tengo tanto que contarte que eh perdido y que no encuentro
                          Am                       C
y entre algunas de estas cosas la fescura con que idee mis planes 
            G
la primera vez
       Am                      F#/G                   C
eh perdido la sorpresa con que descubria la luna mi cabeza
       D               G
si se fue pensando en ti
            Am                     C
y hasta el gusto de ser un irresponsable
                 Em                           F
como pesan las palabras cuando marcha uno de atras
       Em                          G
y cuando soy yo quien tiene que decirlas
               Am
Ojala que esta noche cuando menos
      C                           G
me llegara tu reproche a donde estoy
        Am                              C
por si habia mas que decir de lo que eh dicho 
                      G      F#/G         F   Em
y tambien por si lo dicho se pudo decir mejor
           Am             C                         C#/
pero no estas, y los que vienen no estan para perdonarme 
                   D                          Em                 A
mis carencias personales mas bien viene al concierto de esta noche 
                D  C#/D  B/C  A/G
esperando lo mejor

G            A                 C     
y yo tengo la cabeza en tanto lados 
D                    G
canto para tanta gente
          A              C        D
y ahora pienso tanto en ti
       G                     A
y aun asi me alcanza el corazon
   C           D              G              A
pára sentirlo todo y hoy que me haces tanta falta 
     C          Em                      D
solamente, solamente me eh querido repetir

           Em          A                         C
Como te extraño y como tengo miedo de perder tus pasos
        D             F#/G        Em
de extraviar en algun lado tus promesas y tus sueños
      A                           C
Cual sera el mejor camino, y al hacerme esta pregunta 
           D           C             D          G
pienso en ti y en el camino que te traiga de regreso
G  A  C      D
      que te traiga de regreso
G  A  C      D

G

Fuente original ATAME [www.atame.org]
Colaborador original: Manolo Gongora Damas [mayolomania@hotmail.com]

Fuente: tusacordes.com