a b c d e f g h i j k l m n o p q r s t u v w x y z 0-9

Tus Viejas Cartas

Enanitos Verdes

			
Ahi les va los solos de tus viejas cartas en guitarra ya que el primero 
 lo tocan con piano pero si lo tocas con guitarra, y le echas mucho feeling 
 se oye de poca:


 4-----------------------------------------------------------------
 3-----7-------7---------7-------7---------7-------7---------------
 2--10------10--------10------10--------10------10-------10......--
 1-------10------10--------10------10--------10------10------------

 4-----------------------------------------------------------------
 3--7-7<9------------------------------------------7<9-------------
 2--------8-10----10---8<10>8-7-10-10--7<8>7-7-8-8-----8-8-10------
 1-------------10----7---------------------------------------------


 La cancion empieza con G, Em, C, D.

...Y donde quedo ahora,

 4-----------14---
 3--------14------
 2-----15---------
 1--15------------

 En una de las tablaturas esta bien el requinto pero esta un poco dificil
 ahi les va un poco mas facil.


 6-------------------------------------------------------------------------10<12<10-
 5--------------------------------------------------------------12-10-12------------
 4------------------------------------------------------------9----------9----------
 3--9-------------------9-------------------9-7<9-------7-7<9-----------------------
 2----8-10-12<10-8<10-----8-10-12<10-8<10-8-------7-8-7-----------------------------
 1----------------------------------------------------------------------------------

 
 4--------------9--------------------------------------------------------------------
 3---12-11-11<9---9---------12-----------------------------12-12----------12---------
 2------------------8-12--------------------------------12-------10-12<10----10*---12
 1-----------------------10-----10-12-14-15-14-12-10-12-------------------------10---


 
 < = Ligados
 * = Se hace con full

 Espero que le entiendan y que lo usen sabiamente para alguna morrila.

 ˇˇˇˇ GUANATOS FOREVER !!!!

Fuente original ATAME [www.atame.org]
Colaborador original: mario alberto jimenez cervantes [eloblatos@hotmail.com]

Fuente: tusacordes.com