a b c d e f g h i j k l m n o p q r s t u v w x y z 0-9

Tu Carcel

Enanitos Verdes

D
A
Bm
G
A7
			
 Intro:                                                                    
E--------------------------------------------------
B--------------------------------------------------
G--9h11--11/9-7----7-7-9-9h11-11-7-9-9-7-6---------
D--------------------------------------------------
A--------------------------------------------------
E--------------------------------------------------


E-------------------------------------------------
B-------------------------------------------------
G--6-6-7-9-9-6-7--7-6-4---4-4-4-7-6-4-6/7/9-9-----
D-------------------------------------------------
A-------------------------------------------------
E-------------------------------------------------


E-------------------------------------------------
B-------------------------------------------------
G--9h11--11/9-7----7-7-9-9h11-11-7-9-9-7-6--------
D-------------------------------------------------
A-------------------------------------------------
E-------------------------------------------------


E-------------------------------------------------
B-------------------------------------------------
G--6-6-7-9-9-6-7--7-6-4---4-4-4-7-6-4-6/7/9-9-----
D-------------------------------------------------
A-------------------------------------------------
E-------------------------------------------------


D
Te vas amor si así lo quieres
      A 
que puedo yo hacer, tu vanidad
        Bm
no te deja entender
G                     A 
  que en la pobreza se sabe querer.

 D
Quiero llorar y me destroza
     A 
que pienses así, y mas que
           Bm
ahora me quede sin ti
G                A             A7
  me duele lo que tu vas a sufrir.

D
Pero recuerda, nadie es perfecto
  A 
y tu lo veras mas de mil cosas
    Bm
mejores tendrás
G                  A         A7
  pero un cariño sincero jamás.

D
Vete olvidando,de esto que hoy dejas
   A 
y que cambiaras, por la aventura que
   Bm
tu ya veras.
G              A
  Será tu cárcel y nunca saldrás.



Interfaz:

E-------------------------------------------------
B-------------------------------------------------
G--9h11--11/9-7----7-7-9-9h11-11-7-9-9-7-6--------
D-------------------------------------------------
A-------------------------------------------------
E-------------------------------------------------


E-----------------------------------------------------------
B-----------------------------------------------------------
G--6-6-7-9-9-6-7--7-6-4---4-4-4-7-6-4-6/7/9-9--9h119h119h11-
D-----------------------------------------------------------
A-----------------------------------------------------------
E-----------------------------------------------------------


D
Quiero llorar y me destroza
     A 
que pienses así, y mas que
           Bm
ahora me quede sin ti
G                A             A7
  me duele lo que tu vas a sufrir.

D
Pero recuerda, nadie es perfecto
  A 
y tu lo veras mas de mil cosas
    Bm
mejores tendrás
G                  A         A7
  pero un cariño sincero jamás.

D
Vete olvidando,de esto que hoy dejas
   A 
y que cambiaras, por la aventura que
   Bm
tu ya veras.
G              A 
  Será tu cárcel y nunca saldrás.

D
Pero recuerda, nadie es perfecto
  A 
y tu lo veras mas de mil cosas
    Bm
mejores tendrás
G                  A         A7
  pero un cariño sincero jamás.

D
Vete olvidando,de esto que hoy dejas
   A 
y que cambiaras, por la aventura que
   Bm
tu ya veras.
G              A
  Será tu cárcel y nunca saldrás.


Solo:

E--------------------------------------------------
B--17/19-19-17--------------17-19-19---17-17-------
G--------------19-----19-19---------19------19-18--
D--------------------------------------------------
A--------------------------------------------------
E--------------------------------------------------



E-------------------------------------------
B----------17-17----------------------------
G--18-18-19-----18-19--19-18-16-------------
D-------------------------------------------
A-------------------------------------------
E-------------------------------------------


E----------------------------------------------------
B---------------------------17--17--17h19//-19-17/19b
G16-16-16-19-18-16-18-19--18--18---------------------
D----------------------------------------------------
A----------------------------------------------------
E----------------------------------------------------



Final:

E--------------------------------------------------
B--------------------------------------------------
G--9h11--11/9-7----7-7-9-9h11-11-7-9-9-7-6---------
D--------------------------------------------------
A--------------------------------------------------
E--------------------------------------------------


E------------------------------------------------------------------------
B-------------------------------------------------------------7-8-7------
G--6-6-7-9-9-6-7--7-6-4---4-4-4-7-6-4-6-7/9---9/11-9-11-9-7--7-----7-9-7-
D-------------------------------------------------------------------7----
A------------------------------------------------------------------------
E------------------------------------------------------------------------


E----------------
B--7-8-7---------
G-7-----7-9-7----
D--------7-------
A----------------
E----------------

Alguna duda?........deja tu pregunta aqui abajo. 

Fuente: tusacordes.com