a b c d e f g h i j k l m n o p q r s t u v w x y z 0-9

Tu Carcel

Enanitos Verdes

			
6-------------------------------------------------------------
4-------------------------------------------------------------
5-------------------------------------------------------------
4-------------------------------------------------------------
3-------------------------------------------------------------
2----------------------4-4-4-5-7-7-4-5-4-2-2-2-3-5-5-3-2-2-3-5
14-4-2-0-0-0-2-4-4-0-2-2-0------------------------------------

primero la primera hasta el ultimo 0 y pegada la segunda 



6-----|---------------------------------------|-----|-|------5-----|---------------------------------------|-----|-|-------
4-----|---------------------------------------|-----|-|-------
3-----|---------------------------------------|4-4-4|-|4-2-4-6
2-----|3-3-3-5-7-7-3-5-5-3-2-2-2-3-5-5-2-3-3-2|-----|3|-------
12-2-0|---------------------------------------|-----|-|-------


primero la cuerda primera hasta el 0 despues la segunda hasta el 2 despues pegadita rapido porque si no no suena muy bien la tercera cuerda despues la segunda de vuelta y termina en la tercera 

Fuente: tusacordes.com