a b c d e f g h i j k l m n o p q r s t u v w x y z 0-9

Tu Carcel

Enanitos Verdes

			
Ke dicen muchachos la verdad ke esta kncion
esta rebuena y esta refacil hace lo mismo
en toda la kncion y si no me kreen eskuchenla


INTRO -----> Descansar el primer solo de la guitarra
             o de lo contrario tocarlo asi en el bajo

G-9h11--11/9-7----7-7-9-11-11-11-9-9/6-6----6-6-7-9-9-9--------
D--------------------------------------------------------------
A--------------------------------------------------------------
E--------------------------------------------------------------

ESTO ES TODA LA CANCION

G----------------------------------------
D----------------------------------------
A--5--5-5---5--5-5-----------------------
E-------------------5--5-5--5--5-5-------

G----------------------------------------
D----------------------------------------
A--2--2-2--------------------------------
E----------3--3-3---5--5-5--5--5-5-------

EN EL PRECORO PUEDES HACERLE UNA PEKEÑA VARIACION ASI

G----------------------------------------
D----------------------------------------
A--5--5-5---5--5-5-----------------------
E-------------------5--5-5--5--5-5-------

G-------------------------------------------
D----------------------------------4-5-7----
A--2--2-2--------------------4-5-7----------   LUEGO VUELVES A RE
E----------3--3-3---5--5-5-7----------------

PARA EL ULTIMO SOLO KE NO LLEVA BAJO LO PUEDEN HACER ASI

G-9h11--11/9-7----7-7-9-11-11-11-9-9/6-6----6-6-7-9-9-9--------
D--------------------------------------------------------------
A--------------------------------------------------------------
E--------------------------------------------------------------

FIN DE LA CANCION

Esta muy buena esta cancion y re facil ponganle feeling muchachos
Y KE VIVA QUITO, ECUADOR !!!!

Fuente original ATAME [www.atame.org]
Colaborador original: Andrés Delgado [andresdelgado40@hotmail.com]

Fuente: tusacordes.com