a b c d e f g h i j k l m n o p q r s t u v w x y z 0-9

Tan Solo Un Instante

Enanitos Verdes

			
e------------------------------------------------------
b-7-9--5-7------------55----7-9-10--4-5-7----------55--
g9----8----4--4-2-------------------------4--4-2-------
d-----------------6-7---------------------------66-----
a------------------------------------------------------
e------------------------------------------------------


e------------------------------------------------------
b5-7-9-9/10-9-5-7b9r7r6r5--6p5h6---2p0h2---9-8p5-8-8---
g-------------------------------------------------8----
d------------------------------------------------------
a------------------------------------------------------
e------------------------------------------------------
                        
e----------------------2--5----7---7-9-10-12-14-15p12b-
b7p5-----------------/3--7--/9---9---------------------
g-----7p5----------------------------------------------
d----------7p5-----------------------------------------
a---------------5--------------------------------------
e------------------------------------------------------
 el final es asi

e-----7--5---4-----------------------------------------
b--5h7--5--5-------------------------------------------
y listo disfruten

Fuente original ATAME [www.atame.org]
Colaborador original: ramon hernan roche quintana [hernan@atame.org]

Fuente: tusacordes.com