a b c d e f g h i j k l m n o p q r s t u v w x y z 0-9

Rebeca

Enanitos Verdes

			
REBekA..!!!!rIFo

E||---------------------|------------------------------------------------|
B||---------------------|------------------------------------------------|
G||-----------9-10-12-9-|-----------9-10-12--10-9----10-9----9-----------|
D||-----10-12-----------|-----10-12---------------12------12---12-12/14--|
A||--12-----------------|--12--------------------------------------------|
E||---------------------|------------------------------------------------|



-------------------------------------------------|----------|
-------------------------------------------------|----------|
-------------------------------------------------|----------|
--10-12--9-10--------------10-12/14-12-12--------|----------|
--------------12-14-----12-----------------------|----------|
-------------------------------------------------|----------|



-----------------------------------|
-----------------------------------|
--9--10-12-10-9----10-9----9-10-12-|
----------------12------12---------|
-----------------------------------|
-----------------------------------|



-----------10-12-13--13-13-13h12----12~-13h12-|
--10-12-13-----------------------15-----------|
----------------------------------------------|
----------------------------------------------|
----------------------------------------------|
----------------------------------------------|



-----12-----------------12-15--17--|-----13-15-17-15--13--12--13--15-13-|--12~||
--15--------------13-15------------|------------------------------------|-----||
---------------14------------------|------------------------------------|-----||
-----------------------------------|------------------------------------|-----||
-----------------------------------|------------------------------------|-----||
-----------------------------------|------------------------------------|-----||



SALudos a Mexicali cBTis 21!!! otrA veZ rIFa.... El director No.

Fuente original ATAME [www.atame.org]
Colaborador original: alberto aranda hinojosa [and1neado@hotmail.com]

Fuente: tusacordes.com