a b c d e f g h i j k l m n o p q r s t u v w x y z 0-9

Qué Hacemos?

Enanitos Verdes

			
Aqui les tengo esta roola que esta chidisima
y se la dedico a mi ex Maricarmen por su cumple.
Maricarmen T.K.M. y FELIZ CUMPLE atte: DON JEKAR...

               Bm
No se que vamos a decir amor
                        G
Pero aclaremos nuestra situation
                    F#m          G
No tiene caso escondernos mas
          A
Entre la niebla…


                    Bm
El celuluar a punto de explotar
                        G
Solo palabras a que vienen y van
                  F#m             G
Nos engañamos evitando actuar
              A            D
Y es lo que cuenta  ah,ah,ah.


       G           A
Que hacemos, que hacemos?
         Em       G             A
Con el corazon gritando desde adentro
                    G           A
Y que y que y que hacemos, que hacemos?
       G           A           Bm
Mientras este amor nos mata a fuego lento


< 1er Solo >
---------------------------------------------------------
---------------------------------------------------------
---------------11-12-11-9----------------11-12-11-9------
----------9-9-------------9----------9-9------------10---
--9-9-9-----------------------9-9-9----------------------
---------------------------------------------------------

---------------------------------------------------------
---------------------------------------------------------
----------------11-12-11-9-------------------------------
----------9-9-------------------12h14 /12--12-11-9-11-11-
-10-10-10-----------------12--12-------------------------
---------------------------------------------------------


                   Bm
No se que vamos a decir amor
                    G
Pero busquemos una solucion
                       F#m        G
El tiempo lame nuestra soledad
           A
Y alli se queda


                         Bm
Llegado el caso no Habra que cortar
                         G
Y entre tus labios me podre quedar
                         F#m      G
Mientras la noche se desliza y va
                D             D
Por nuestros cuerpos  ah, ah, ah.
 G           A
Que hacemos, que hacemos?
         Em       G             A
Con el corazon gritando desde adentro
                    G           A
Y que y que y que hacemos, que hacemos?
       G           A           Bm
Mientras este amor nos mata a fuego lento





< 2do Solo >
 G           A
Que hacemos, que hacemos?
         Em       G             A
Con el corazon gritando desde adentro
                    G           A
Y que y que y que hacemos, que hacemos?
          G             A
Mientras este amor nos mata
          G              A
Mientras este amor nos mata
           G           A           Bm
Mientras este amor nos mata a fuego lento.Fuente: Tus acordes