a b c d e f g h i j k l m n o p q r s t u v w x y z 0-9

Por El Resto

Enanitos Verdes

			
Este es el bajo de la versión unplugged:

Introducción esperar hasta que entre el bajo:

         Am             Dm         F
G|------------------|---------|---------|
D|------------------|---------|---------|
A|--------------3-4-|-5-5-5-7-|-8-8-----|
E|-5-5-0-3-5--5-----|---------|-----8-7-| x6

Canto:

         Am                 F                 Dm
G|-----------------|-----------------|-----------------|
D|-7-7---5-7-7---5-|-----------------|-----------------|
A|-----7-------7---|-8-8---7-8-8---7-|-5-5---3-5-5---5-|
E|-----------------|-----8-------8---|-----5-------5---|

        Am
G|-----------------|
D|-7-7---5-7-7---5-|
A|-----7-------7---|
E|-----------------|
         Am                 F                 Dm
G|-----------------|-----------------|-----------------|
D|-7-7---5-7-7---5-|-----------------|-----------------|
A|-----7-------7---|-8-8---7-8-8---7-|-5-5---3-5-5---5-|
E|-----------------|-----8-------8---|-----5-------5---|

                  Em
G|-----------------|-----------------|
D|-----------------|-----------------|
A|-7-7-7-7-7-7-7-7-|-7-7-7-7-7-7-7-7-|
E|-----------------|-----------------|

Pre-estribillo:

          F                Dm            G
G|-----------------|-----------------|--------|
D|-----------------|-----------------|--------|
A|-8-8---7-8-8---7-|-5-5---3-5-5---5-|--------|
E|-----8-------8---|-----5-------5---|-3-3--3-|

Estribillo:

        Am                  F
G|-----------------|-----------------|
D|-7-7---5-7-7---5-|-----------------|
A|-----7-------7---|-8-8---7-8-8---7-|
E|-----------------|-----8-------8---|

        Am              F        G
G|-----------------|---------|--------|
D|-7-7---5-7-7---5-|---------|--------|
A|-----7-------7---|-8-8---7-|--------|
E|-----------------|-----8---|-3--3-3-|

---------------------------------------
Bis Introducción x2
---------------------------------------
Bis Canto
---------------------------------------
Bis Pre-estribillo
---------------------------------------
Bis Estribillo
---------------------------------------
Solo de guitarra sobre Introducción x2
---------------------------------------
Bis Pre-estribillo
---------------------------------------
Bis Estribillo
---------------------------------------
Bis Introducción
---------------------------------------
Corte de guitarra esperar a que entre el bajo:
BIS INTRODUCCION
---------------------------------------
Final:

   F  Em  Am
G|---|---|---|
D|---|---|---|
A|-8-|-7-|-5-|
E|---|---|---|
---------------------------------------
Si tenés alguna duda y/o pregunta, escribime a ejpolo@hotmail.com

Fuente original ATAME [www.atame.org]
Colaborador original: Emiliano Polo [ejpolo@hotmail.com]

Fuente: tusacordes.com