a b c d e f g h i j k l m n o p q r s t u v w x y z 0-9

Noche Cualquiera

Enanitos Verdes

			
intro: 2 veces 
   A    E     F#m    E 
e|-0--0---4----------0---- 
B|-2--2-5-5-5-2---2--0---0 
G|-2--2-4-4---2------1---- 
D|-2--2-------4-4----2-2-- 
A|-0--0--------------2---- 
E|------0-0---2------0---- 

En los versos tambien se toca el intro 
pero lo puedes rasgar. 

           A               E 
Una noche mas que tengo encima 
      F#m       E 
otra copa se vacia 
           A               E 
dibuje tu rostro en las paredes 
       F#m             E 
no fue una fueron mil veces 

      D                 E 
Inconciente vivo, muriendo por dentro 
      D                    E 
en el sur del mundo, en otro hemisferio 

      A     E   F#m 
Eres tu mi religion. 
            D                  E 
El amor no tiene reglas ni fronteras 
                     A      E  F#m 
por eso siempre eres tu mi salvacion 
                      D                  E 
que hasta el sol robaria con total de tenerte 
            A         E  F#m  E 
una noche cualquiera... 
            A         E  F#m  E 
una noche cualquiera... 

D  E  D  E 

           A               E 
Una noche mas que se ha pasado 
         F#m             E 
vacia el alma, el corazon atado 
               A               E 
respirando el humo de un cigarrillo 
         F#m         E 
que no esta bien apagado 

        D                 E 
Abrazando el viento llegare a tu lado 
      D                       E 
desafiando inviernos y a los hemisferios 

      A     E   F#m 
Eres tu mi religion. 
            D                  E 
El amor no tiene reglas ni fronteras 
                     A      E  F#m 
por eso siempre eres tu mi salvacion 
                      D                  E 
que hasta el sol robaria con total de tenerte 
            G 
una noche cualquiera... 
            D 
una noche cualquiera... 
         F              D 
una noche cualquiera... 

                      A     E      F#m 
Por eso siempre eres tu la luz, mi vida 
                D                         E 
y tu nombre mi norte, estrella que me ilumina 
                      A        E   F#m 
por eso siempre eres tu, siempre seras tu 
                   D 
el perfume que ronda 
                  E 
donde quiera que vaya 

            G 
una noche cualquiera... 
            D 
una noche cualquiera... 
         F              D 
una noche cualquiera... 
x2 

G  D  F  D 
G  D  F  D mute 

G-D-Em D F D 

G  D  F  D 
G  D  F  D 

termina en unos punteos que se pueden acompañar con 
G A F E A 

 e|-------------------------5-----5-------- 
B|---3---3---3---3------5------5----6/13~- 
G|-4---4---4---4-------------------------- 
D|-----------------5----------------7/14~- 
A|--------------------7------7------------ 
E|---------------------------------------- 

e|-------------------------------------1-- 
B|---------0-----0-------------0------ 
G|-----1-----1-----1-----1----11b13- 
D|-2---------------------2-------------- 
A|------------------------------------------ 
E|------------------------------------------ 

e|---------------------*-7/9~---17~- 
B|---------0---------2-------------- 
G|-------2-----2---2-2-------------- 
D|-----2-----2---2---2-------------- 
A|---0---------------0-------------- 
E|---------------------------------- 

En esta parte las notas anteriores al asterisco 
son notas fantasma, si las tocas no alcanzas a tocar 
las notas finales que son las que estan despues del asterisco.

Fuente: Tusacordes