a b c d e f g h i j k l m n o p q r s t u v w x y z 0-9

No Me Veras

Enanitos Verdes

A
F#
Bm
D
B
E
			
A 
No me veras, no me veras
      F#     Bm
abrazando recuerdos
    D                 A 
la vida es demasiado corta
       B             E
para vivirla en el pasado

         A 
no me veras, no me veras
          F#   Bm
si algun dia caigo
     D                 A 
no quiero q te pongas triste
            B            E
si yo estoy mal de verme mal

         A 
no me veras no me veras
        F#      Bm
pidiendote revancha
 D                A 
todo lo q pueda pasarnos
           B             E
si somos sinceros estara bien

        D
te conoci sin saber
        D7
q yo te iba  querer
           A      F#
de esta manera

            D
y ahora estoy muy feliz
        D7                A      F#
pq te tengo a ti por vez primera
        Bm
voy a amarte

SOLO DE BAJO

G--------------------4h6424---------
D-------2-42------------------------
A-----------------------------------
E-02020--------02020----------------

G-----------------------------
D-----------------------------
A-----------------------------
E-55-0--350-------------------

G-----------------------------
D-----------------------------
A-----------------------------
E-2222222222-3333333333-------

SOLO DE GUITARRA
E |-----------------------------------------------
B |--10/12-8-10-8-8--6/8-8--10-8------------------
G |------------------------------9-7--------------
D |---------------------------------9-7-5-7/9-3-5-
A |-----------------------------------------------


e------------------------7-8/9-7-8-7-------|
B-7/888-7/888-7/888-7/88-------------8/9-8-|
G-6/777-6/777-6/777-6/77-------------------|
D------------------------------------------|
A------------------------------------------|
E------------------------------------------|


        D
te conoci sin saber
        D7
q yo te iba  querer
           A      F#
de esta manera

            D
y ahora estoy muy feliz
        D7                A      F#
pq te tengo a ti por vez primera
        Bm
voy a amarte

*Cambia la cancion

A E D [4 veces]

A                 E                D
  Fue en la estación del metro Balderas
A                  E                 D
  donde quedó la huella de nuestro amor,
A                 E                D
  allá en la estación del metro Balderas
A                  E              D
  Allí quedó embarrada mi reputación.

A            E                   D
  Oye chofer, llévame a donde quieras
A               E                  D
  llévame a la Villa o a la San Simón,
A             E             D
  llévame a Copilco o a Contreras,
A             E                 D [remate]
  pero no me lleves al metro Balderas.

A                 E                D
  Fue en la estación del metro Balderas
A                  E                 D
  donde quedó la huella de nuestro amor,
A                 E                D
  allá en la estación del metro Balderas
A                  E              D
  allí es donde ella se metió al talóoon...

FINAL: A E D [4 veces]

Solo último

  |-----------------------------5-----|
  |---------------------8-8-7-5-------|
  |---------6-7-6-9---------------5---|
  |-7-5/7-7---------7-7-------------7-|
  |-----------------------------------|
  |-----------------------------------|

  |----------------------------5------|
  |--------------------8-8-7-5--------|
  |--------6-7-6-9---------------5----|
  |--5/7-7---------7-7-------------7--|
  |-----------------------------------|
  |-----------------------------------|

  |----------------------------5------|
  |--------------------8-8-7-5--------|
  |--------6-7-6-9---------------5----|
  |--5/7-7---------7-7-------------7--|
  |-----------------------------------|
  |-----------------------------------|

  |----------------------------5------|
  |--------------------8-8-7-5--------|
  |--------6-7-6-9--------------------|
  |--5/7-7---------7-7----------------|
  |-----------------------------------|
  |-----------------------------------|

  |---------5---------5---------5-----|
  |-8-8-7-5---8-8-7-5---8-8-7-5-------|
  |-----------------------------------|
  |-----------------------------------|
  |-----------------------------------|
  |-----------------------------------|

  |-----------------------------------------------|
  |-----------------------------------------------|
  |-5---5---5---5---5---------7^-7^-7^-7^-7---7---|
  |---7---7---7---7---7---------------------8---8-|
  |-----------------------------------------------|
  |-------------------5---------------------------|

Fuente: Tusacordes