a b c d e f g h i j k l m n o p q r s t u v w x y z 0-9

No Me Veras

Enanitos Verdes

			
Esta cancion esta muy padre y esta muy solicitada
esta en el tono original del disco asi q no 
puede fallar, se oye igual q ahi
espero q les guste...

         A      
No me veras, no me veras
      F#     Bm
abrazando recuerdos
    D                 A
la vida es demasiado corta
       B             E
para vivirla en el pasado


e--5-4-2--------|
B--------5-3-2--|
G---------------|
D---------------|
A---------------|
E---------------|

         A
no me veras, no me veras
          F#   Bm
si algun dia caigo
     D                 A
no quiero q te pongas triste
            B            E
si yo estoy mal de verme mal

e--5-4-2--------|
B--------5-3-2--|
G---------------|
D---------------|
A---------------|
E---------------|

         A   
no me veras no me veras
        F#      Bm
pidiendote revancha
 D                A
todo lo q pueda pasarnos 
           B             E
si somos sinceros estara bien

e--5-4-2--------|
B--------5-3-2--|
G---------------|
D---------------|
A---------------|
E---------------|

        D
te conoci sin saber 
        D7
q yo te iba  querer 
           A      F#
de esta manera

            D
y ahora estoy muy feliz 
        D7                A      F#
pq te tengo a ti por vez primera
        Bm
voy a amarte


SOLO

Guitarra acustica

sin plumilla
e-----9---10-12*10*9------------------------|
B---10---------------12*10*9----------------|
G--9--------------------------11*9----------|
D----------------------------------12*11*9--|
A-------------------------------------------|
E-------------------------------------------|


e----------------------|
B----------------------|
G----------------------|
D----------------------|
A-12*11*9--------------|
E----------12*10*9~~~--|


Electrica

  Esta parte es con mucho distor y ayudado 
  de la palanca algunas veces escuchala

e---------------------|
B---------------------|
G--9~-----------------|
D--7~---7--7^87-7-|
A---------------------|
E---------------------|

Bajale un leve al distor


e---------12-9--------9----9-10-9---------9-|
B-10^12------12^13--12--------12^13---|
G-------------------------------------------|
D-------------------------------------------|
A-------------------------------------------|
E-------------------------------------------|

 esta parte es con taping, entre parentesis 
 mano derecha

e-109-109-109-109-1210-1210-1210-1210|
B----------------------------------------------------|
G----------------------------------------------------|
D----------------------------------------------------|
A----------------------------------------------------|
E----------------------------------------------------|

  esta parte es como tremolo... rapido
e-14-14-14---12-12-12---10-10-10---9-9-9------------|
B-----------------------------------------12-12-12--|
G---------------------------------------------------|
D---------------------------------------------------|
A---------------------------------------------------|
E---------------------------------------------------|

                    normal
e--------------------15^17-14-14-12-12------------|
B-10-10-10---9-9-9------------------------9-10-12-10|
G---------------------------------------------------|
D---------------------------------------------------|
A---------------------------------------------------|
E---------------------------------------------------|

       taping no se cuantas veces
e-------1412-1412-1412-1412--9~-------------|
B---------------------------------------12~---------|
G-11~-----------------------------------------------|
D---------------------------------------------------|
A---------------------------------------------------|
E---------------------------------------------------|

 taping no se cuantas veces mas, oiganlo bien
e---------------------------------------------------|
B-1210-1210121012101410141014101410-|
G---------------------------------------------------|
D---------------------------------------------------|
A---------------------------------------------------|
E---------------------------------------------------|


e-----------------------------|
B-1510151015101510~~~-|
G-----------------------------|
D-----------------------------|
A-----------------------------|
E-----------------------------|

        D
te conoci sin saber 
        D7
q yo te iba  querer 
           A      F#
de esta manera

            D
y ahora estoy muy feliz 
        D7                A      F#
pq te tengo a ti por vez primera
        Bm
voy a amarte


         A   
no me veras, no me veras
     F#         Bm
ocultando sentimientos
    D                          A
no voy a ser mas fuerte o mas debil
              B            E
solo por mostrarme sentimental

e--5-4-2--------|
B--------5-3-2--|
G---------------|
D---------------|
A---------------|
E---------------|


          A
no me veras, no me veras
       F#     Bm
levantando banderas
       D                A
si al fin este mundo es uno
             B                E
yo quiero un mundo no quiero tres

        D
te conoci sin saber 
        D7
q yo te iba  querer 
           A      F#
de esta manera

            D
y ahora estoy muy feliz 
        D7                A      F#
pq te tengo a ti por vez primera
        Bm
            voy a amarte

A        F#      D
A        F#      D
trompetas

A        F#      D
no me veras
A        F#      D
no me veras
A        F#      D
no me veras
A        F#      D
no me veras

La lira electrica va con distor, oigan la rola
al parecer va marcando solo quintas..

y ya saben si tienen dudas, comentarios, anecdotas,
chistes o lo q sea a mi mail jcd_007@hotmail.com

si van a usar esta tab para algun lugar avisenme
no sean ****gandallas***** y si buscan un 
guitarrista ando en busca de banda =)

Fuente original ATAME [www.atame.org]
Colaborador original: Julio Durán "Gambito" [jcd_007@hotmail.com]

Fuente: tusacordes.com