a b c d e f g h i j k l m n o p q r s t u v w x y z 0-9

No Me Veras Metro Balderas

Enanitos Verdes

			
Hola que tal, les traigo la tablatura para bajo de esta buenisima
canción de los enanitos verdes, está bien facil y que la disfruten..

Verso...

G-----------------------------
D-----------------------------
A----------------22-22--------
E-5-55-5-55-2-22--------------

G-----------------------------
D-----------------------------
A-5-55------2-22--7-0567------
E------5-55-------------------

TE CONOCI SIN SABER.......

G-----------------------------------------------
D----------------------------------7--4---------
A------------66666666---------5h77---7---7------
E-5555555555----------55555555------------------

Y AHORA SOY MUY FELIZ... 2
G----------------------------------------------------
D---------------------77777777-8888888-99999999------
A------------66666666--------------------------------
E-5555555555-----------------------------------------

SOLO DE BAJO

G--------------------4h6424---------
D-------2-42------------------------
A-----------------------------------
E-02020--------02020----------------

G-----------------------------
D-----------------------------
A-----------------------------
E-55-0--350-------------------

G-----------------------------
D-----------------------------
A-----------------------------
E-2222222222-3333333333-------

CAMBIO DE RITMO A METRO BALDERAS

DE AHÍ HASTA EL FINAL DE LA CANCIÓN..

Fue en la estación del metro balderas....

G-----------------------------
D-----------------------------
A-------777777-555555555------
E-555555----------------------  x5

Fuente original ATAME [www.atame.org]
Colaborador original: Ezequiel Estrella Prudencio [ezequiel_chapis@hotmail.com]

Fuente: tusacordes.com