a b c d e f g h i j k l m n o p q r s t u v w x y z 0-9

Mil Horas

Enanitos Verdes

			
INTRO ES ESTE SOLO FACIL…

G--------------------------------------------------------------------
D--------------------------------------------------------------------
A----------------------------------2-4-4--2-4-4--2-4-4--2-4-4--------
E-4-4--2-4-4--2-4-4--2-4-4-------------------------------------------


G---------------------------------------------------------------------
D------------------------------------------------------2-4-4--2-4-4---
A------------------------------------2-4-4--2-4-4---------------------
E--2-4-4--2-4-4--2-4-4--2-4-4-----------------------------------------

Entra requinto, y haces lo mismo...

Hace frío, estoy lejos de casa.. 0.25 Sec.

G-------------------------------------
D---------------------6-6-6-6-6-6-6-6- x3 veces
A-4-4-4-4-4-6-6-6-6-6-----------------
E-------------------------------------

Tengo un cohete en el pantalón... 0.45 Sec.
Esta parte va mas o menos rápida así ke le tienen
ke agarrar el ritmo bien pa ke suene poka!!

G-----------------------------------------------------------
D-----------------------------------------------------------
A-4--2-4---------2-4--4--2-4---------2-4--4--2-4---------2-4
E--------2-4--2-4------------2-4--2-4------------2-4--2-4---

G-------------------------------------
D---------------------2-2-2-2-2-2-2-2-
A-4--2-4---------2-4------------------
E--------2-4--2-4---------------------

Coro... Min. 1.01

G--------------------------------------
D--------------------------------------
A----------44444444-66666666-777777777-
E-444444444----------------------------

Date cuenta ke apartir del acorde D#m7 traste 6 de la cuerda A
del bajocambia de ritmo más lento..

G-----------------------------------------------------
D-----------------------------------------------------
A----------44444444-6-6-6-6-6-6-6-6--7-7-7-7-7-7-7-7-7
E-444444444-------------------------------------------

Vuelve intro…  Min. 1.24

G--------------------------------------------------------------------
D--------------------------------------------------------------------
A----------------------------------2-4-4--2-4-4--2-4-4--2-4-4--------
E-4-4--2-4-4--2-4-4--2-4-4-------------------------------------------

G---------------------------------------------------------------------
D------------------------------------------------------2-4-4--2-4-4---
A------------------------------------2-4-4--2-4-4---------------------
E--2-4-4--2-4-4--2-4-4--2-4-4-----------------------------------------

En el circo... Min. 1.36

G-------------------------------------
D---------------------6-6-6-6-6-6-6-6- x3 veces
A-4-4-4-4-4-6-6-6-6-6-----------------
E-------------------------------------

Tengo un cohete en el pantalón... Min. 1.55

G-----------------------------------------------------------
D-----------------------------------------------------------
A-4--2-4---------2-4--4--2-4---------2-4--4--2-4---------2-4
E--------2-4--2-4------------2-4--2-4------------2-4--2-4---

G-------------------------------------
D---------------------2-2-2-2-2-2-2-2-
A-4--2-4---------2-4------------------
E--------2-4--2-4---------------------


Coro... Min. 1.01

G--------------------------------------
D--------------------------------------
A----------44444444-66666666-777777777-
E-444444444----------------------------

G-----------------------------------------------------
D-----------------------------------------------------
A----------44444444-6-6-6-6-6-6-6-6--7-7-7-7-7-7-7-7-7
E-444444444-------------------------------------------

Sólo de Staití.. Min. 2.33
Este se hace como el intro... Todo esto 3 veces..

G--------------------------------------------------------------------
D--------------------------------------------------------------------
A----------------------------------2-4-4--2-4-4--2-4-4--2-4-4--------
E-4-4--2-4-4--2-4-4--2-4-4-------------------------------------------

G---------------------------------------------------------------------
D------------------------------------------------------2-4-4--2-4-4---
A------------------------------------2-4-4--2-4-4---------------------
E--2-4-4--2-4-4--2-4-4--2-4-4-----------------------------------------

Tengo un cohete en el pantalón... Min. 2.59

G-----------------------------------------------------------
D-----------------------------------------------------------
A-4--2-4---------2-4--4--2-4---------2-4--4--2-4---------2-4
E--------2-4--2-4------------2-4--2-4------------2-4--2-4---

G-------------------------------------
D---------------------2-2-2-2-2-2-2-2-
A-4--2-4---------2-4------------------
E--------2-4--2-4---------------------


Coro... Min. 3.14

G--------------------------------------
D--------------------------------------
A----------44444444-66666666-777777777-
E-444444444----------------------------

G---------------------------------------------------
D---------------------------------------------------
A----------44444444-6-6-6-6-6-6-6-6-4-4-4-4-4-4-4-4-
E-444444444-----------------------------------------

G---------------------------
D---------------------------
A-6-6-6-6-6-6-7-7-7-7-7-7-7-
E---------------------------

Vuelve intro…  Min. 3.40

G--------------------------------------------------------
D-----------------------------------------2-4-4--2-4-4--- x4 vecs
A---------------------------2-4-4--2-4-4-----------------
E-4-4--2-4-4--2-4-4--2-4-4-------------------------------

Y cierras con..

D-2-2-2-2-2-----------------

Canción bien chida de los enanos y sigan apoyando a esta banda
ke ha logrado cosas grandes…Fuente: Tus acordes