a b c d e f g h i j k l m n o p q r s t u v w x y z 0-9

Mi Primer Dia Sin Ti

Enanitos Verdes

			
QUE ONDA YA REGRESE. ES LA PRIMERA DE LOS ENANITOS Q PONGO
Y LA NETA ESTA BIEN CHIDA.
ESTA ES LA PARTE EN QUE EN LA
VERCION EN VIVO ES CON GUITARRA Y EN LA OTRA ES
 HU HO HUOHO... Y DE ACUERDO A LOS TONOS QUE ESTAN
AQUI EN EL ATAME QUE SON LOS ORIGINALES SE OYE
MAS O MENOS ASI...


B-9-h-11-9-7--------9-h-11-9-7-------9-h-11-9-7--------11-12-11-9-
E------------11-9--------------11-9--------------11-9--------


B-9-h-11-9-7--------9-h-11-9-7-------9-h-11-9-7--------11-12-11-9-
E------------11-9--------------11-9--------------11-9--------


ESTO ES AL PRINCIPIOANTES DE EMPEZAR ,NO ESTOY ACOSTUMBRADO...
Y EN MEDIODESPUES DEL CORO ,NO LO PUEDO ENTENDEEEER

Y YA PARA ACABAR ES

B-9-h-11-9-7--------9-h-11-9-7-------9-h-11-9-7--------11-12-11-9-
E------------11-9--------------11-9--------------11-9--------


B-9-h-11-9-7--------9-h-11-9-7-------9-h-11-9-7--------11-12-11-9-
E------------11-9--------------11-9--------------11-9--------
B---11-11-9-7-

Fuente original ATAME [www.atame.org]
Colaborador original: Alejandro Jiménez [jiad87@hotmail.com]

Fuente: tusacordes.com